Vojicic Mladen - Tifa

Ova noć je za nas stvorena

by: Guitar360

Pronađi akord!

Ne znaš kako odsvirati neki od akorda pjesmi Ova noć je za nas stvorena? Upiši akord u tražilicu i saznaj!

Traženi akord će se prikazati ovdje

Od istog izvođača

Pregledano 27463 puta
Pregledano 9662 puta
Pregledano 4815 puta
Pregledano 6242 puta
Pregledano 15542 puta
Trebaš ritam za ovu pjesmu? Pronađi ga ovdje
Akordi/Tabovi:
Tifa - Ova noć je za nas stvorena

uvod: A E

e------------------------|------------------------|
H------------------------|------------------------|
G----------------7-6-----|------------------------|
D----------7-9--7----7-9-|----------7-9--7-9s11-9-|
A--0p4-5-7---------------|--0p4-5-7---------------|
E------------------------|------------------------|

e-----------------10-9------|---------------------------||
H--10-----10-12-10----10-12-|-10-----10-12--10-12s14-12-||
G----6-7-9------------------|---6-7-9-------------------||
D---------------------------|---------------------------||
A---------------------------|---------------------------||
E---------------------------|---------------------------||

   A
   Gdje li si sad, neću da znam
(A6)F#m           D      E
   gdje li je kraj ti mi reci
        A       E     D
   zašto ljubav gubi sjaj
        F#m             D     E
   zašto blijede slike, uspomene

D             E
ma hajde mila daj mi daj
D             E
ma hajde mila da ne bude kraj
D            E
u inat svima ti i ja
D                    E
ova noć je za nas kao stvorena

    A
   ova noć je, ova noc je
(Asus2)F#m           D     E
   ova noć je za nas stvorena X2


Zaboravi sad sve ružne noći
zagrli me sad, da ne bude riječi
neka ljubav veže nas,
neka ljubav bude uz nas

ma hajde mila daj mi daj...
Komentari
Još nema komentara