Vojicic Mladen - Tifa

Duge kiše jesenje (komplicirano)

by: Guitar360

Pronađi akord!

Ne znaš kako odsvirati neki od akorda pjesmi Duge kiše jesenje (komplicirano)? Upiši akord u tražilicu i saznaj!

Traženi akord će se prikazati ovdje

Od istog izvođača

Pregledano 9636 puta
Pregledano 2904 puta
Pregledano 3098 puta
Pregledano 2694 puta
Pregledano 6323 puta
Trebaš ritam za ovu pjesmu? Pronađi ga ovdje
Akordi/Tabovi:
Tifa - Duge kiše jesenje

info: tipicno Tifa.Sve je u B-molu(B,C#,D,E,F#,G,A),osim
interlude-a koji je u principu u nokoj vrsti D.Guitar solo
koristi istovremeno dvije skale;gore navedenu B-mol skalu i
B harmonic minor(B,C#,D,E,F#,G,A#).Obozavateljima Yngwie
Malmsteen-a ce ovo poznato zvucati u usima,to je njegova
omiljena kombinacija.Nego zadnji dio intro sola(harmonika)
sam aranzirao tako da se svira tapping-om jer je to po meni
najblize sto se sa gitarom orginalni zvuk moze reproducirati.



figure 1: intro harmonika
----------------------------------------------------------------
-7------------------------------------------------7-------------
----9-7-9--7-9-11-7----------------7---7--7-9-11-----9-7-9--7-9-
--------------------11-9---9-7-9-11--11-11----------------------
----------------------------------------------------------------
----------------------------------------------------------------

            prvi put                  drugi put
                                       T    T    T    T
----------------------------------------------------------------
--------------------------------------12^7-10^7-12^7-14^7-------
-11-7-----------------7---7-9-7---------------------------------
------11-9--7-9-7-9-11--11-----11-9-----------------------------
----------------------------------------------------------------
----------------------------------------------------------------

                                        figure 2: verse
T    T   etc...                         Bm          A
---------------------------------------]-----------------------
15^7-14^7-15^7-17^7-15^7-17^7-14^7-12^7]-----------------------
---------------------------------------]---4--4------2-2---4-4-
---------------------------------------]--4-----X2--2-----4----
---------------------------------------]-2---2-----0--0--2--2--
---------------------------------------]-----------------------


Verse: (figure 2)
       Bm                    A            Bm
      Jednom kad sretneš me, to neću biti ja.
      Već samo uspomene, mrve sjećanja.

pre-chorus:(vidi figure 5)
       D5         A5    E5        B5
       Samo prazna bol, sad je ostala.
       D5     A5   E5
       Prazna bol kajanja.
       F#5        G5   A5
       I šta radis ti nije važno mi,
       D5
       tek kiša jesenja, podsjeća.


figure 3: prelaz                      figure 4: refren
                                      B5 G5 D5
-------------------------------------]-----------------------
-------------------------------------]-----------------------
-------------------11-12-9-11--9-----]-----------------------
----------------X3-----------12-12-11]-4-----7-----2---------
-9-10-7-9--7-------------------------]-2--5--5--4-5-4-5-4-2-0
---------10-9-10---------------------]----3------------------

refren:
       figure 4
       Kap po kap kiša sprema se.
       Samo da znaš nisam lud da mislim na tebe.
                                     G5             B5   F#5
       Kap, kap po kap, opet padat će te duge kise jesenje.


figure 5: pre-chorus akordi  figure 6: interlude
D5 A5 E5 B5  F#5 G5  A5  D5                        bend
---------------------------]--------------------------------
---------------------------]--------------------------------
---------------------------]--------------------------------
-7-----9-----11--12--14--7-]-----6-7------6-7-6-------------
-5--7--7--9---9--10--12--5-]-5-7------5-7-------8-7^8(10)---
----5-----7----------------]--------------------------------

figure 7: guitar solo
rake     tremolo  P.M
--7---------------------------------------------------------
-x-7-7^8--10---------12-11-12--------12-11--11--------------
x----------------------------12-11--------12--12-11---------
------------------9-9---------------9-----------------------
------------------------------------------------------------
------------------------------------------------------------

P.M                  figure 8: akordi ispod intra
----------------------]------------------------
----12-11-12-11-------]------------------------
---------------12-11--]------------------------
-9-9------------------]-4--------7-9---4-------
----------------------]-2--------5-7---2-------
----------------------]------------------------

  T
17^7=tapping(prstom desne ruke odsviraj E(17 polje,druga zica)
a onda uradi pull-off na 7 polje druge zice.
P.M= palm muting(prigusivanje desnom rukom)
8(10)= bend citavu notu
Komentari

Radioactiv kaže:

odličan tab... i dobra ideja za sviranje zadnjeg dijela uvodne solaže tappingom... a ja se mučio s preskakanjem žica :/

28-06-2010 23:50