Daleka Obala

Ona zbori

by: Guitar360

Pronađi akord!

Ne znaš kako odsvirati neki od akorda pjesmi Ona zbori? Upiši akord u tražilicu i saznaj!

Traženi akord će se prikazati ovdje

Od istog izvođača

Pregledano 8583 puta
Pregledano 61573 puta
Pregledano 29017 puta
Pregledano 3517 puta
Pregledano 29250 puta
Trebaš ritam za ovu pjesmu? Pronađi ga ovdje
Akordi/Tabovi:
Daleka Obala - Ona zbori


    Am    F
Ona zbori
C        G          Am
tiho kao kad šapuće more
F
I kaze
C           G           Am
Nemoj više misliti na mene
F
I kaže
C       G       Am  F  C  E
Zaboravi,zaboravi

       Am F
Njene oči
C         G          Am
Njene oči govore mi mnogo
F
Da pati
C            G        Am
Pogledom mi zadire u srce
F
I ruje
C       G        Am
Zagrli me zagrli me
      F
Da li me čuješ
C       G        Am
Zagrli me zagrli me
         F          C
I nemoj stati nikad ne idi
G         Am     
Ne idi od mene
       F
Nemoj nikad stati
C      G         Am  F
Ljubi me poljubi me
C      G         Am  F  C  E
Ljubi me poljubi meeeeeeeee

Am F C G Am F C E


Njene usne
Njene usne ukusne i meke
I tople
Ja ne znam kamo ću sa sobom
Od sreće
Kad je vidim ne znam kamo ruke da stavim
Ne znam reći niti jednu riječ
Mozda pati
Ljubi me poljubi me

I nemoj stati nikad ne idi
ne idi od mene
Nemoj nikad stati
Ljubi me poljubi me
Ljubi me poljubi me
Ljubi me............
Komentari

johy kaže:

Ovo gore se svira sa capom na 3. polju

Akordi bez capa:

Cm G#
Ona zbori
D# G Cm
tiho kao kad šapuće more
G#
I kaze
D# G Cm
Nemoj više misliti na mene
G#
I kaže
D# G Cm G# D# G(F#)
Zaboravi,zaboravi

Cm G#
Njene oči
D# G Cm
Njene oči govore mi mnogo
G#
Da pati
D# G Cm
Pogledom mi zadire u srce
G#
I ruje
D# G Cm
Zagrli me zagrli me
G#
Da li me čuješ
D# G Cm

Zagrli me zagrli me
G# D#
I nemoj stati nikad ne idi
G Cm
Ne idi od mene
G#
Nemoj nikad stati
D# G Cm G#
Ljubi me poljubi me
D# G Cm G# D# G(F#)
Ljubi me poljubi meeeeeeeee

Cm G# D# G Cm G# D# G


Njene usne
Njene usne ukusne i meke
I tople
Ja ne znam kamo ću sa sobom
Od sreće
Kad je vidim ne znam kamo ruke da stavim
Ne znam reći niti jednu riječ
Mozda pati
Ljubi me poljubi me

21-05-2019 17:41

johy kaže:

|------------------------|--------------------|
|------------------------|--------------------|
|------------------------|--------------------|
|------------------------|----------9---------|
|--------------8/11~--11-|-10~~-10-----10--8--|
|-8--8-8-8--11-----------|--------------------|

|------------------------|--------------------|------|
|------------------------|--------------------|------|
|------------------------|--------------------|------|
|------------------------|----------9--10--12-|-9----|
|--------------8/11~--11-|-10~~-10------------|------|
|-8--8-8-8--11-----------|--------------------|------|


Riff 2, 0:23
|------------------------|------------------|
|------------------------|------------------|
|------------------------|------------------|
|------------------------|------------------|
|--------------8/11~--11-|-10--8------------|
|-8--8-8-8--11-----------|--------11--10----|


Riff 3, 1:55
|-----------------------|-------------------|
|-----------------------|-------------------|
|-----------------------|-------------------|
|-----------------------|-------------------|
|--------------8/11~----|-10-----8----------|
|-8--8-8-8--11----------|-----------11--10--|

|-----------------------|-------------------|
|-----------------------|-------------------|
|-----------------------|-------------------|
|-----------------------|-------------------|
|--------------8/11~----|-10~~--------------|
|-8--8-8-8--11----------|-------------------|

21-05-2019 17:42

truli45 kaže:

Ona zbori-solo

|---------------|-----------------|--------------|
|---------------|-----------------|--------------|
|---------------|-----------------|--------------|
|---------------|--------9-------|--------------|
|-------11-11-|10-10--10-8-|------11-11-|
|8-8-11-------|----------------|8-8-11------|

|---------------------|----|--------|
|---------------------|----|--------|
|---------------------|----|-12----|
|---------9-10-12--|-9-|--------|
|10-10-10---------|----|--------|
|---------------------|----|--------|

21-05-2019 19:56