Leonard Cohen

Who By Fire

by:

Pronađi akord!

Ne znaš kako odsvirati neki od akorda pjesmi Who By Fire? Upiši akord u tražilicu i saznaj!

Traženi akord će se prikazati ovdje

Od istog izvođača

Pregledano 2251 puta
Pregledano 3051 puta
Pregledano 3870 puta
Pregledano 2004 puta
Pregledano 170 puta
Trebaš ritam za ovu pjesmu? Pronađi ga ovdje
Akordi/Tabovi:
  Am/E
     >     >           >           >           >
e-|--------------------------------------------------|
B-|--1-----------------------------------------------|
G-|--------2-----------2-----------2-----------2-----|
D-|-----------2-----2-----2-----2-----2-----2-----2--|
A-|--------------------------------------------------|
E-|--0----------(0)---------(0)----------0-----------|
     i     i  i  t  t  i  i  t  t  i  i  t  t  i  i
     t     

    Am/F
     >     >           >           >           >
e-|--------------------------------------------------|
B-|--1-----------------------------------------------|
G-|--------2-----------2-----------2-----------2-----|
D-|-----------2-----2-----2-----2-----2-----2-----2--|
A-|--------------------------------------------------|
E-|--1----------(1)---------(1)---------(1)----------|
     i     i  i  t  t  i  i  t  t  i  i  t  t  i  i
     t

    E(7)
     >     >     >     >     >     >     >     >
e-|--------------------------------------------------|
B-|--------------------------------------------------|
G-|--------1-----1-----1-----1-----1-----1-----1-----|
D-|-----2-----2-----2-----2-----2-----2-----2-----2--|
A-|--------------------------------------------------|
E-|--0-----------------------------------------------|
     t  t  i  t  i  t  i  t  i  t  i  t  i  t  i  t



     >     >     >     >     >     >     >     >
e-|--------------------------------------------------|
B-|--------------------------------------------------|
G-|--1-----1-----1-----1-----1-----1-----1-----1-----|
D-|-----2-----2-----2-----2-----2-----2----2------2--|
A-|--------------------------------------------------|
E-|--------------------------------------------------|
     i  t  i  t  i  t  i  t  i  t  i  t  i  t  i  t


    Am           G          Am
     >           >           >     >           >
e-|--------------------------------------------------|
B-|--1-----------0-----------1-----------------------|
G-|--------2-----------0-----------2-----------2-----|
D-|-----2-----2-----0-----0-----2-----2-----2-----2--|
A-|--------------------------------------0-----------|
E-|--------------------------------------------------|
     m  t  i  t  m  t  i  t  m  t  i  i  t  t  i  t   

    Who          by         fire 

    Am           G          Am
     >           >           >     >           >
e-|--------------------------------------------------|
B-|--1-----------0-----------1-----------------------|
G-|--------2-----------0-----------2-----------2-----|
D-|-----2-----2-----0-----0-----2-----2-----2-----2--|
A-|--------------------------------------0-----------|
E-|--------------------------------------------------|
     m  t  i  t  m  t  i  t  m  t  i  i  t  t  i  t

    Who         by          water


    C/E         G/D         C/E     
     >           >           >           >     >
e-|--------------------------0-----------------------|
B-|--1-----------3-----------------------1-----------|
G-|--------0-----------0-----------0-----------0-----|
D-|-----2-----2-----0-----0-----2-----2-----2-----2--|
A-|--------------------------------------------------|
E-|--------------------------------------------------|
     m  t  i  t  m  t  i  t  r  t  i  t  m  t  i  t
   
    Who         in    the   sun - shine


    C/E         G/D         C/E
     >           >           >           >     >
e-|--------------------------0-----------------------|
B-|--1-----------3-----------------------1-----------|
G-|--------0-----------0-----------0-----------0-----|
D-|-----2-----2-----0-----0-----2-----2-----2-----2--|
A-|--------------------------------------------------|
E-|--------------------------------------------------|
     m  t  i  t  m  t  i  t  r  t  i  t  m  t  i  t

   Who          in     the  night - time


    Am           G          Am
     >           >           >     >           >
e-|--------------------------------------------------|
B-|--1-----------0-----------1-----------------------|
G-|--------2-----------0-----------2-----------2-----|
D-|-----2-----2-----0-----0-----2-----2-----2-----2--|
A-|--------------------------------------0-----------|
E-|--------------------------------------------------|
     m  t  i  t  m  t  i  t  m  t  i  i  t  t  i  t

    Who               by   high ordeal 


    Am           G          Am
     >           >           >     >           >
e-|--------------------------------------------------|
B-|--1-----------0-----------1-----------------------|
G-|--------2-----------0-----------2-----------2-----|
D-|-----2-----2-----0-----0-----2-----2-----2-----2--|
A-|--------------------------------------0-----------|
E-|--------------------------------------------------|
     m  t  i  t  m  t  i  t  m  t  i  i  t  t  i  t

    Who               by   common  trial


    C/E         G/D         C/E
     >           >           >           >     >
e-|--------------------------0-----------------------|
B-|--1-----------3-----------------------1-----------|
G-|--------0-----------0-----------0-----------0-----|
D-|-----2-----2-----0-----0-----2-----2-----2-----2--|
A-|--------------------------------------------------|
E-|--------------------------------------------------|
     m  t  i  t  m  t  i  t  m  t  i  t  m  t  i  t

    Who in your merry merry month of May,     


    C/E         G/D         C/E
     >           >           >           >     >
e-|--------------------------0-----------------------|
B-|--1-----------3-----------------------1-----------|
G-|--------0-----------0-----------0-----------0-----|
D-|-----2-----2-----0-----0-----2-----2-----2-----2--|
A-|--------------------------------------------------|
E-|--------------------------------------------------|
     m  t  i  t  m  t  i  t  r  t  i  t  m  t  i  t

    Who    by   very        slow  decay        and


    Am/E
     >     >           >           >           >
e-|--------------------------------------------------|
B-|--1-----------------------------------------------|
G-|--------2-----------2-----------2-----------2-----|
D-|-----2-----2-----2-----2-----2-----2-----2-----2--|
A-|--------------------------------------------------|
E-|--------------0-----------0-----------0-----------|
     m  t  i  i  t  t  i  i  t  t  i  i  t  t  i  i

                                         Shall I   say

    Am/F
     >     >           >           >           >
e-|--------------------------------------------------|
B-|--------------------------------------------------|
G-|--------2-----------2-----------2-----------2-----|
D-|-----2-----2-----2-----2-----2-----2-----2-----2--|
A-|--------------------------------------------------|
E-|--1-----------1-----------1-----------1-----------|
     t  t  i  i  t  t  i  i  t  t  i  i  t  t  i  i

                                              is

    E/B
     >     >     >     >     >     >     >     >
e-|--------------------------------------------------|
B-|--0-----------------------------------------------|
G-|--1-----1-----1-----1-----1-----1-----1-----1-----|
D-|-----2-----2-----2-----2-----2-----2-----2-----2--|
A-|--2-----------------------------------------------|
E-|--------------------------------------------------|
     m  t  i  t  i  t  i  t  i  t  i  t  i  t  i  t
     i
     t

    calling

     >     >     >     >     >     >     >     >
e-|--------------------------------------------------|
B-|--------------------------------------------------|
G-|--1-----1-----1-----1-----1-----1-----1-----1-----|
D-|-----2-----2-----2-----2-----2-----2-----2-----2--|
A-|--------------------------------------------------|
E-|--------------------------------------------------|



Lyrics :


And who by fire, who by water,
who in the sunshine, who in the night time,
who by high ordeal, who by common trial,
who in your merry merry month of may,
who by very slow decay,
and who shall I say is calling?

And who in her lonely slip, who by barbiturate,
who in these realms of love, who by something blunt,
and who by avalanche, who by powder,
who for his greed, who for his hunger,
and who shall I say is calling?

And who by brave assent, who by accident,
who in solitude, who in this mirror,
who by his lady's command, who by his own hand,
who in mortal chains, who in power,
and who shall I say is calling?
Komentari
Još nema komentara