Mašinko

Erupcija srece

by:

Pronađi akord!

Ne znaš kako odsvirati neki od akorda pjesmi Erupcija srece? Upiši akord u tražilicu i saznaj!

Traženi akord će se prikazati ovdje

Od istog izvođača

Pregledano 3123 puta
Pregledano 294 puta
Trebaš ritam za ovu pjesmu? Pronađi ga ovdje
Akordi/Tabovi:
[INTRO]
F#5 E5 A5

D|--7v--|

[VERSE]
A5               D5            A5
Pogledaj u nebo, smijesi ti se dan
F#5          E5           A5
smijesi se i meni, al' ja nisam normalan
A5                  D5      A5
zgrabi svaku sansu, zapocni romansu
F#5          E5     A5
donesi nekom srecu, kretenu kazi "necu"

D|--7v--|

[REFREN]
A5            D5       A5
Neka te trese erupcija srece
F#5      E5    A5
svoje probleme baci sad u smece
A5               D5          A5
prekrasan je dan za ostvarit san
F#5         E5                 A5
zaboravi na druge, skoci preko duge


  A5  D5 A5                        A5  D5 A5
e|---------|----------------------|---------|----------------------|
B|---------|-------------------5--|---------|----------------------|
G|---------|----------2-4-4b-2----|---------|----------2-4-4b-2-2--|
D|---------|------2-4-------------|---------|------2-4-------------|
A|---------|--2-4-----------------|---------|--2-4-----------------|
E|---------|----------------------|---------|----------------------|


A5                   D5           A5
Razvali dobru spiku, posjeti neki bar
F#5     E5     A5
utoni u idilu, otkloni svaki kvar
A5                D5                 A5
zavali se u kadu, pjevaj di-bu di-bu da-bu
F#5         E5     A5
otvori srce sreci, losu vibru sprijeci


[REFREN]


[SOLO]
e|-------------------------2---2-----2-----------------------------------------------|
B|---------------------2-5---5---5-2---5-2---5-5-2-5-2-------------------------------|
G|----------4-2-4b-2-4---------------------4-----------4b-2---2----------2-4-4b-2-2--|
D|------2-4-------------------------------------------------4--------2-4-------------|
A|--2-4----------------------------------------------------------2-4-----------------|
E|-----------------------------------------------------------------------------------|

e|---------------------------|
B|---------------------------|
G|----2---2---2---4b-4b-4-2--|   x4
D|--4---4---4---4------------|
A|---------------------------|
E|---------------------------|


[VERSE]

D|--7v--|


[REFREN]   x2

F#5           E5      A5
Pokloni nekom pljuge, skoci preko pruge


F#5 E5 A5   x3


e|------5--|
B|------5--|
G|--6\7----|
Komentari
Još nema komentara