Parni Valjak

Vrijeme

by:

Pronađi akord!

Ne znaš kako odsvirati neki od akorda pjesmi Vrijeme? Upiši akord u tražilicu i saznaj!

Traženi akord će se prikazati ovdje

Od istog izvođača

Pregledano 11993 puta
Pregledano 19477 puta
Pregledano 18167 puta
Pregledano 306110 puta
Pregledano 44486 puta
Trebaš ritam za ovu pjesmu? Pronađi ga ovdje
Akordi/Tabovi:
Parni valjak
VRIJEME
Album:Vrijeme,2018.


e---------------------
B-8p7--------8p7------
G-7~-----7---7~----7--
D-----4/7-7-----4/7-7-

G
Ja vam lovim snove
za ljude koji plove
      D
mojim svemirom
G
slažem ih u priče
                  D
posolim ih svojim nemirom
A
Puštam ih da lete
    G
kao da su zmajevi
A
crvene su boje,
      G
to su boje ljubavi
F#m                Em
al' vrijeme svakog prevari
A
smiješi se, pa nestane

   PH PH PH
e--15-14------------
B--------15---------
G--------------7----
D-----------4/7-4~--

G
Jedna je od priča
da sretno mjesto
       D
negdje postoji
G
potraži ga u sebi
                 D
ako voliš, to će pomoći
       A
Puštam snove da odlete
    G
kao da su zmajevi
A
crvene su boje
      G
to su boje ljubavi
F#m                Em
al' vrijeme svakog prevari
A
smiješi se, pa udari

REFREN
     D   A           G          A
Samo vrijeme -sve se drugo može kupit
     D    A       G  A
samo vrijeme-ne može
D   A           G          A
Vrijeme-znaš da skupo će naplatit
D      A        G  A
Svoje stare dugove


   PH PH PH
e--15-14------------
B--------15---------
G--------------0----
D-----------4/5-4~--

G
I ako netko pita
                   D
ja se igram,ja još putujem
G
još uvijek vidim staze
staze da se gaze
   D
Ne odustajem
   A                G
Ma prodao bih dušu ,vjeruj mi
A                  G
da se vrijeme može vratiti
F#m               Em
al vrijeme svakog prevari
A
smiješi se, pa udari

REFREN
Samo vrijeme...

   PH PH PH
e--15-14------------
B--------15---------
G--------------7----
D-----------4/7-4~--

SOLO
e------------------------5--5b7r5-------
B----3-3-3----3-3-5-3-5/7-7------7~------------
G-2/4---4--2/4-4---------------------------


e-----------/7-7-7-7-7-7-5----5b7r5--
B----3-3-3--/8-8-8-8-8-8-7-7~------7~-
G-2/4---4------------------7~---

A                   G
Ma prodao bih dušu ,vjeruj mi
A                   G
da se vrijeme može vratiti
F#m         Em
da smo opet ti i ja
    A
kao nekada
     D A       G           A
Ajde dođi-imaš ključeve od stana
     D A       G   A
samo dođi-ne čekaj
     D A       G        A
ajde dođi-imam otvorena vrata
     D    A    G  A
samo uđi, ne kucaj
     D  A       G   A    D   A  G A ...
samo dođi nemoj čekati , dođi...
Komentari
Još nema komentara