Zabranjeno pusenje

Baš Čelik

by: Sman

Pronađi akord!

Ne znaš kako odsvirati neki od akorda pjesmi Baš Čelik? Upiši akord u tražilicu i saznaj!

Traženi akord će se prikazati ovdje

Od istog izvođača

Pregledano 5940 puta
Pregledano 31573 puta
Pregledano 18179 puta
Pregledano 4006 puta
Pregledano 27039 puta
Trebaš ritam za ovu pjesmu? Pronađi ga ovdje
Akordi/Tabovi:
Uvod: C E

Solažica:

E-------------------------------------------
B-------------------------------------------
G--/5-4-2----0---0-2-2-2-0-2-0---0----------
D--------------2---------------2---0h2---0--
A-------------------------------------------
E-------------------------------------------

E-------------------------------------------
B-------------------------------------------
G--/5-4-2----0---0-2-2-2-2-4-5---5-7-9—7~---
D----------------2----------------------------
A-------------------------------------------
E-------------------------------------------


C       Am          F         C 
Bila je noc i svjetionik stao
       G
da namigiva
C       Am    F             
bila je noc i mjesec i zvonik
  C          G
i ti uz mene ziva

Padao mrak, bas Celik
svjetlost dana uze
padao mrak, umjesto zvjezda
zablistale su suze

Ref.
C
A snivali smo krilat
    F   C G
let ala i divova
F   G        Am G   F
dozivali smo suncan svijet    x2
   C          G
od srece i od snova
Solažica 2:
isto kao prva, osim drugog dijela:
E------------------------------------------------
B-----------------------------------------------------------
G--/5-4-2----0---0-2-2-2-2-4-5---5-7-9—7--7-9---5
D---------------2---------------------------------
A------------------------------------------------
E------------------------------------------------
Komentari

truli45 kaže:

Bez iti jedne greške.

22-08-2017 11:42