Opća Opasnost

Pakleni Vozači

by: David020102

Pronađi akord!

Ne znaš kako odsvirati neki od akorda pjesmi Pakleni Vozači? Upiši akord u tražilicu i saznaj!

Traženi akord će se prikazati ovdje

Od istog izvođača

Pregledano 10866 puta
Pregledano 3816 puta
Pregledano 12491 puta
Pregledano 27464 puta
Pregledano 11902 puta
Trebaš ritam za ovu pjesmu? Pronađi ga ovdje
Akordi/Tabovi:
Intro:  C5   A5 x2

Riff:
e----------------------------------
B----------------------------------
G----------------------------------
D----------------------------------
A-------------3-------------------
E-3-5-3-5------5-3-5---------- X2

(riff se svira kroz pjesmu)


RIFF
Prvi put vidjeno, u vasem su gradu
pakleni vozaci celicnih zivaca
pripremite karte, zauzmite mjesta
tu na galeriji plavog zida smrti

Ref. 2x
E5                      C5  D5      A5
Ovo je vrijeme paklenih vozaca

Dva brata rodjena na zidu smrti
da ne vjerujes rodjenim ocima
kuda oni jure, da l' ih slava vuce
ili mozda novac, titula neka

Ref. 2x
E5                      C5  D5      A5
Ovo je vrijeme paklenih vozaca

SOLO

RIFF
Dva brata rodjena na zidu smrti
da ne vjerujes rodjenim ocima
kuda oni jure, da l' ih slava vuce
ili mozda novac, titula neka

Ref. 4x
E5                      C5  D5      A5 (4. put umjesto A5 ide B5)
Ovo je vrijeme paklenih vozaca


RIFF 2
e---------------------------------
B--------------------------------
G--------------------------------
D--------------------------------
A----------------5---------------
E---5-7-5-7-------7-5-5------  X2


Ref. 4x
E6sus2               D5  E5     B5 (4. put umjesto B5 ide D6sus2sus4)
Ovo je vrijeme paklenih vozaca


Kraj: A5 B5



E6sus2
e---------                                 
B---------                   
G--11-----
D--11-----
A--9-----
E---------


D6sus2sus4
e---------
B---------
G---------
D--12-----
A--12-----
E--10-----
Komentari
Još nema komentara