Ivan Zak

Da Si Tu

by: Domagoj Dumančić

Pronađi akord!

Ne znaš kako odsvirati neki od akorda pjesmi Da Si Tu? Upiši akord u tražilicu i saznaj!

Traženi akord će se prikazati ovdje

Od istog izvođača

Pregledano 4208 puta
Pregledano 6241 puta
Pregledano 9481 puta
Pregledano 8942 puta
Pregledano 3279 puta
Trebaš ritam za ovu pjesmu? Pronađi ga ovdje
Akordi/Tabovi:
Uvod: A, E, F#m, D / 2X

A
Tako često te trebam
jer s tobom dišem do kraja
E
i da mi budeš tu
D
kad sve nade potonu

Ti me dižeš do neba
kad mi to najviše treba
i više što
što bi bilo normalno

Refren 2x
A                 E
Da si tu kad svi mi ledja okrenu
           F#m         D
i kada me loši dani dotaknu
i mogu sve mogu sve izgubiti
jer imam sve kad mogu tebe ljubiti
A
svaki dan

Sretni tuge se boje
ti nosiš sreću za dvoje
uz tebe veća je
uz tebe tuga sreća je

Ti me dižeš do neba
kad mi to najviše treba
i više što
što bi bilo normalno

Refren 2x
Da si tu kad svi mi ledja okrenu
i kada me loši dani dotaknu
i mogu sve mogu sve izgubiti
jer imam sve kad mogu tebe ljubiti

svaki dan

Da si tu kad svi mi ledja okrenu
i kada me loši dani dotaknu
i mogu sve mogu sve izgubiti
jer imam sve kad mogu tebe ljubiti

svaki dan
Komentari

matek2107 kaže:

uvod

e----------------------------------------------------------------|
B----------------------------------------------------------------|
G-----2-4-4/6-6-6-7-6-4-2-4----2-4-4/6-1-1-2--------------|
D-2-4--------------------------2-4-----------------6-4-2-4----|
A-----------------------------------------------------------------|
E-----------------------------------------------------------------|

e-------------------------------------------------------------------------------|
B-------------------------------------------------------------------------------|
G-----2-4-4/6-6-6-7-6-4-2-4----2-4-4/6-13-13-12-12-10-8-10-6-5-----|
D-2-4--------------------------2-4--------------------------------------------|
A-------------------------------------------------------------------------------|
E-------------------------------------------------------------------------------|

07-02-2017 14:27