Hives

Two-timing Touch And Broken Bones

by:

Pronađi akord!

Ne znaš kako odsvirati neki od akorda pjesmi Two-timing Touch And Broken Bones? Upiši akord u tražilicu i saznaj!

Traženi akord će se prikazati ovdje

Od istog izvođača

Pregledano 1712 puta
Pregledano 1889 puta
Pregledano 1692 puta
Pregledano 1644 puta
Pregledano 1582 puta
Trebaš ritam za ovu pjesmu? Pronađi ga ovdje
Akordi/Tabovi:
INTRO/VERSE


Guitar 1
E|0--3--5--8--------0-0-0-3-3-3-3-5-5-5-8-8-8------|
B|0--3--5--8--------0-0-0-3-3-3-3-5-5-5-8-8-8------|
G|1--4--6--9--------1-1-1-4-4-4-4-6-6-6-9-9-9------|    X2
D|2--5--7--10-------2-2-2-5-5-5-5-7-7-7-101010-----|
A|2--5--7--10-------2-2-2-5-5-5-5-7-7-7-101010-----|
E|0--3--5--8--------0-0-0-3-3-3-3-5-5-5-8-8-8------|

                       (all bar chords)
Guitar 2
E|0--3--5--8--------0-0--3-3--5-5--8-8---------|
B|0--3--5--8--------0-0--3-3--5-5--8-8---------|
G|1--4--6--9--------1-1--4-4--6-6--9-9---------|    X2
D|2--5--7--10-------2-2--5-5--7-7--1010--------|
A|2--5--7--10-------2-2--5-5--7-7--1010--------|
E|0--3--5--8--------0-0--3-3--5-5--8-8---------|

INTRO 2


Guitar 1
E|---------------------------------|
B|---------------------------------|
G|---------------44444444444444444-|
D|---------------44444444444444444-|
A|---------------22222222222222222-|
E|---------------------------------|


Guitar 2
E|--------------------------------|
B|--------------------------------|
G|44444444444444444444444444444444|
D|44444444444444444444444444444444|
A|22222222222222222222222222222222|
E|--------------------------------|

Pre-Chorus

Guitar 1

E|--------------------------------|
B|--------------------------------|
G|44444444444444447777777799999999|
D|44444444444444447777777799999999|
A|22222222222222225555555577777777|
E|--------------------------------|


Guitar 2

E|--------------------------------|
B|--------------------------------|
G|44444444444444447777777799999999|
D|44444444444444447777777799999999|
A|22222222222222225555555577777777|
E|--------------------------------|

Chorus


Guitar 1
E|--------------------------------------|
B|--------------------------------------|
G|44444-22-77777-222-44444-22-77777-222-|
D|44444-22-77777-222-44444-22-77777-222-|
A|22222-00-55555-000-22222-00-55555-000-|
E|--------------------------------------|

Guitar 2
E|--------------------------------------|
B|--------------------------------------|
G|---------77777--------------77777-----|
D|99999-77-77777-777-99999-77-77777-777-|
A|99999-77-55555-777-99999-77-55555-777-|
E|77777-55-------555-77777-55-------555-|

After Drum Solo

Guitar 1
E|7/5/3\5/3\5/7----------------------------------|
B|7/5/3\5/3\5/7----------------------------------|
G|8/6/4\6/4\6/8----------------------------------|
D|9/7/5\7/5\7/9----------------------------------|
A|9/7/5\7/5\7/9----------------------------------|
E|7/5/3\5/3\5/7----------------------------------|

Guitar 2
E|----------------------------------|
B|----------------------------------|
G|----------------------------------|
D|----------------------------------|
A|----------------------------------|
E|----------------------------------|

STRUCTURE

Intro/Verse x 2
Intro 2
Intro/Verse x 4
Pre-Chorus
Chorus x 4
Intro/Verse x 2
After Drum Solo
Intro/Verse x 2
Pre-Chorus
Chorus x 8
Komentari
Još nema komentara