Hives

Hives Are Law You Are Crime

by:

Pronađi akord!

Ne znaš kako odsvirati neki od akorda pjesmi Hives Are Law You Are Crime? Upiši akord u tražilicu i saznaj!

Traženi akord će se prikazati ovdje

Od istog izvođača

Pregledano 1644 puta
Pregledano 1729 puta
Pregledano 1605 puta
Pregledano 1833 puta
Pregledano 1646 puta
Trebaš ritam za ovu pjesmu? Pronađi ga ovdje
Akordi/Tabovi:
e---10---------------------------------------------------|
b------12------------------------------------------------|
g-----------7--9-----------------------------------------|    x3
d------------------7--6----------------------------------|
a--------------------------------------------------------|
E--------------------------10--7-------------------------|


e----10------------10-------10---------------------------|
b-------12------------12---------------------------------|
g-----------7--9-----------------------------------------|    x1
d--------------------------------------------------------|
a--------------------------------------------------------|
E--------------------------------------------------------|


and

e--------------------------------------------------------|
b--------------------------------------------------------|
g-----66666----------------------------------------------|
d-----66666-6---77777-6----------------------------------|
a-----44444-6---77777-6----------------------------------|
Komentari
Još nema komentara