Hives

Die All Right

by:

Pronađi akord!

Ne znaš kako odsvirati neki od akorda pjesmi Die All Right? Upiši akord u tražilicu i saznaj!

Traženi akord će se prikazati ovdje

Od istog izvođača

Pregledano 1701 puta
Pregledano 1587 puta
Pregledano 1648 puta
Pregledano 1774 puta
Pregledano 1736 puta
Trebaš ritam za ovu pjesmu? Pronađi ga ovdje
Akordi/Tabovi:
Intro (after drums)
e|-0-3-5----33-5-7777---------------------------------|
B|-0-3-5----33-5-7777---------------------------------|
G|-1-4-6----44-6-8888---------------------------------|
D|-2-5-7----55-7-9999---------------------------------|
A|-2-5-7----55-7-9999---------------------------------|
E|-0-3-5----33-5-7777---------------------------------|

Verse (same as intro)
e|-0-3-5----33-5-7777---------------------------------|
B|-0-3-5----33-5-7777---------------------------------|
G|-1-4-6----44-6-8888---------------------------------|
D|-2-5-7----55-7-9999---------------------------------|
A|-2-5-7----55-7-9999---------------------------------|
E|-0-3-5----33-5-7777---------------------------------|

Pre-Chorus
e|-8-8-8-8-8-8-8-8--77777777--------------------------|
B|-8-8-8-8-8-8-8-8--77777777--------------------------|
G|-9-9-9-9-9-9-9-9--88888888--------------------------|
D|-1010101010101010-99999999--------------------------|
A|-1010101010101010-99999999--------------------------|
E|-8-8-8-8-8-8-8-8--77777777--------------------------|

Chorus
e|--------------------33333333-55555------------------|
B|--------------------33333333-55555------------------|
G|-999999-10-9-77777--44444444-66666------------------|
D|-999999-10-9-77777--55555555-77777------------------|
A|-777777-10-7-55555--55555555-77777------------------|
E|--------------------33333333-55555------------------|
Komentari
Još nema komentara