Hives

Abra Cadaver

by:

Pronađi akord!

Ne znaš kako odsvirati neki od akorda pjesmi Abra Cadaver? Upiši akord u tražilicu i saznaj!

Traženi akord će se prikazati ovdje

Od istog izvođača

Pregledano 1712 puta
Pregledano 1767 puta
Pregledano 1582 puta
Pregledano 1690 puta
Pregledano 1833 puta
Trebaš ritam za ovu pjesmu? Pronađi ga ovdje
Akordi/Tabovi:
Intro:Verse&Chorus:
e------------------------------------------|
B------------------------------------------|
G------------------------------------------|
D---9999999999999999-5555-77777-999999999--|
A---9999999999999999-5555-77777-999999999--| So play that all through the
E---7777777777777777-3333-55555-777777777--| song until the outro which is:

Outro Guitar 1:
e---------------------R
B---------------------E
G---------------------P
D---------------------E X8
A---0-2-2-2-0-2-2-2---A
E---------------------T

Outro Guitar 2:
e---------------------R
B---------------------E
G---------------------P
D---9-9-9-9-9-9-9-9---E X8
A---9-9-9-9-9-9-9-9---A
E---7-7-7-7-7-7-7-7---T
Komentari
Još nema komentara