Toto

Hold The Line

by: Guitar360

Pronađi akord!

Ne znaš kako odsvirati neki od akorda pjesmi Hold The Line? Upiši akord u tražilicu i saznaj!

Traženi akord će se prikazati ovdje

Od istog izvođača

Pregledano 5654 puta
Pregledano 6557 puta
Pregledano 2290 puta
Pregledano 1854 puta
Pregledano 2024 puta
Trebaš ritam za ovu pjesmu? Pronađi ga ovdje
Akordi/Tabovi:
Toto - Hold The Line


    F#m C#m D    E      F#m C#m D    E
e|-------------------|-------------------|-------------|
B|-------------------|-------------------|-------------|
G|--11--6--7-7--9----|--11--6--7-7--9----|-------------|
D|--11--6--7-7--9----|--11--6--7-7--9----|-------------|
A|---9--4--5-5--7----|---9--4--5-5--7----|---7--4-3-2--|
E|-------------------|-------------------|-------------|

Verse:
e|--------------------------|--------------------------|
B|--------------------------|--------------------------|
G|--------------------------|--------------------------|
D|----------2-4---2-4-------|----------2-4---2-4-------|
A|-2-3-4--4-----4-----4-3-2-|-2-3-4--4-----4-----4-3-2-|
E|--------------------------|--------------------------|

                              X2
e||----------------------------||----------------------|
B||----------------------------||----------------------|
G||----------------------------||-------------------9--|
D||----------------------------||-------------------9--|
A||-2-3-4--3-4-5--4-5-7--4-3-2-||-2-3-4--3-4-5--4-5-7--|
E||----------------------------||----------------------|


It's not in the way that you hold me
It's not in the way you say you care
It's not in the way you've been treating my friends
It's not in the way that you stayed till the end
It's not in the way you look or the things that you say that you'll do

         F#m   C#m  D E                      F#m   C#m  D E
Hold the line,          love isn't always on time, oh oh oh

    F#m C#m D    E      F#m C#m D    E
e|-------------------|-------------------|-------------|
B|-------------------|-------------------|-------------|
G|--11---6--7-7--9---|--11---6--7-7--9---|-------------|
D|--11---6--7-7--9---|--11---6--7-7--9---|-------------|
A|---9---4--5-5--7---|---9---4--5-5--7---|---7--4-3-2--|
E|-------------------|-------------------|-------------|


It's not in the words that you told me, girl
It's not in the way you say you're mine, ooh
It's not in the way that you came back to me
It's not in the way that your love set me free
It's not in the way you look or the things that you say that you'll do

Chorus

Solo

It's not in the words that you told me
It's not in the way you say you're mine, ooh
It's not in the way that you came back to me
It's not in the way that your love set me free
It's not in the way you look or the things that you say that you'll do

Chorus
Komentari
Još nema komentara