Bombaj Stampa

Bolje letim sam - uvod

by: ograjso

Pronađi akord!

Ne znaš kako odsvirati neki od akorda pjesmi Bolje letim sam - uvod? Upiši akord u tražilicu i saznaj!

Traženi akord će se prikazati ovdje

Od istog izvođača

Pregledano 2741 puta
Pregledano 5453 puta
Pregledano 209 puta
Pregledano 7723 puta
Pregledano 7473 puta
Trebaš ritam za ovu pjesmu? Pronađi ga ovdje
Akordi/Tabovi:
E------------------------------------------
B-------5-7-5-------8-7-5---5---------
G-7~-----------7~----------7---7--5-4
D------------------------------------------
A------------------------------------------
E------------------------------------------

E------------------------------------------------
B-------5-7-5-------8-7-5---5---------------
G-7~----------7~-----------7---7--5-4------
D--------------------------------------------7-5
A-------------------------------------------------
E-------------------------------------------------
Komentari

Panzer259 kaže:

Nije ti dobar uvod.Jako je lagan uvod
ali na kraju fraza su pogrešni tonovi.

25-07-2015 17:05