Ramones

The Ramones - Poison Heart

by: Billie_Joe

Pronađi akord!

Ne znaš kako odsvirati neki od akorda pjesmi The Ramones - Poison Heart? Upiši akord u tražilicu i saznaj!

Traženi akord će se prikazati ovdje

Od istog izvođača

Trebaš ritam za ovu pjesmu? Pronađi ga ovdje
Akordi/Tabovi:
(intro)

(riff 3x)

       C#           B
E|----------------------------------------------|
B|-2--5--2--4--5--0-5--0--4--5--4--0---|
G|----------------------------------------------|
D|----------------------------------------------|
A|----------------------------------------------|
E|----------------------------------------------|


       A
E|----------------------------------------|
B|----------------------------------------|
G|-2-2-2-2-2-2-2-2-2---------------|
D|----------------------------------------|
A|----------------------------------------|
E|----------------------------------------|


C#5          E5     C#5          E5
No one ever thought this one would survive
C#5             E5            A5        B5
Helpless child, gonna walk a drum beat behind
C#5            E5    C#5          E5
Lock you in a dream, never let you go
C#5          E5        A5        B5
Never let you laugh or smile, not you

       A5            B5          C#5     B5    A5
Well, I just want to walk right out of this world
       A5       B5           C#5
'Cause everybody has a poison heart
   A5            B5          C#5     B5    A5
I just want to walk right out of this world
        A5    B5           C#5      B5   C#5  B5
'Cause everybody has a poison heart

C#5                     E5       C#5          E5
Making friends with a homeless torn up man
C#5      E5                    A5         B5
He just kind of smiles, it really shakes me up
C#5                       E5         C#5     E5
There's danger on every corner but I'm okay
C#5              E5                A5         B5
Walking down the street trying to forget yesterday

   A5            B5           C#5     B5     A5
I just want to walk right out of this world
        A5     B5           C#5     (2x)
'Cause everybody has a poison heart

B5           C#5 B5            C#5   B5           A5
  A  poison heart, a poison heart, a poison heart

Yeah

(solo 2x)


         E                    A
E|--------------------------|-----------------------------|
B|--------------------------|-----------------------------|
G|--------------------------|-7-7-7-8--8s10-8-7---|
D|-7-7-7-8--8s10-8-7-|------------------7---------|
A|-------------------8------|----------------------------|
E|---------------------------|---------------------------|



               C#5    E5     C#5        E5
You know that life really takes its toll
         C#        E             A5         B5
And a poet's gut reaction is to search his very soul
C#              E5       C#5       E5
So much d*amn confusion before my eyes
        C#5             E5          A5                B5
But nothing seems to phase me and this one still survives

   A5           B5          C#5     B5    A5
I just want to walk right out of this world
        A5     B5           C#5                (2x)
'Cause everybody has a poison heart

   A5            B5          C#5     B5    A5
I just want to walk right out of this world

        A5     B5
'Cause everybody has

          C#5    B5
a poison heart     (7x)
         A5
A poison heart

( A5 B5  C#5 )
Komentari
Još nema komentara