Toma Zdravković

Tamburaši, tamburaši

by: Haris

Pronađi akord!

Ne znaš kako odsvirati neki od akorda pjesmi Tamburaši, tamburaši? Upiši akord u tražilicu i saznaj!

Traženi akord će se prikazati ovdje

Od istog izvođača

Pregledano 56825 puta
Pregledano 34177 puta
Pregledano 67423 puta
Pregledano 10230 puta
Pregledano 40153 puta
Trebaš ritam za ovu pjesmu? Pronađi ga ovdje
CREDITS: yesiloveguitar - Lekcije Za Gitaru - youtube stranica: https://www.youtube.com/user/YesiloveguitarLzG !

INTRO: (dva puta odsvirati)
e -----------------------------------------------------------------
b ----------------6-10-10-8-8-6-6-5-5-----------------5-8-8-6-6-5-5
g --7h.8--7---7-9---------------------7--5h.p.6---5-7--------------
d --7-------7----------------------------5------5------------------
a -----------------------------------------------------------------
E -----------------------------------------------------------------

e -----------------------------------------------------------------
b -3-3-----------------3-6-6-5-5-3-3-1-1----------3----------------
g -----5--3h.p.4---3-5-------------------3--2-3-5---5-3-3-2-2~-----
d --------3------3-------------------------------------------------
a -----------------------------------------------------------------
E -----------------------------------------------------------------
Akordi (intro): Gm C B Gm G#dim7 A (Cm)
Akordi (verse): Dm B A C C7 F Bdim C Gm G#dim A
Akordi (chorus): Dm G Bdim C D Gm G#dim7 A C#dim7 Dm

-------------------------------------------------------------------
h.p. = hammer on and pull off
p. = pull off
s. = slide
~ = vibrato
-------------------------------------------------------------------
Komentari

truba45 kaže:

Ako si već stavio lekciju za ovu pjesmu onda bar napiši
one akorde koji se sviraju u intru.Dalje nisam slušao
ni gledao pa ti probaj ispraviti.

06-11-2014 19:34

haris105448 kaže:

Pogledaj ovde.

06-11-2014 20:27

haris105448 kaže:

<iframe width="560" height="315" src="//www.youtube.com/embed/XvGt5kOHzJ0" frameborder="0" allowfullscreen></iframe>

06-11-2014 20:31

truba45 kaže:

E sad je bez greške kad si ispravio.

07-11-2014 11:31