Daleka Obala

Morska vila - solo

by: ArtiCoka

Pronađi akord!

Ne znaš kako odsvirati neki od akorda pjesmi Morska vila - solo? Upiši akord u tražilicu i saznaj!

Traženi akord će se prikazati ovdje

Od istog izvođača

Pregledano 12699 puta
Pregledano 9988 puta
Pregledano 12910 puta
Pregledano 17575 puta
Pregledano 267 puta
Trebaš ritam za ovu pjesmu? Pronađi ga ovdje
Akordi/Tabovi:
Stave 1:

E|--------------12--13p12----------------(15)--|--15--13--12--13--12-----------------
B|--13------13-------------13------------------|----------------------15--15b17r15v--
G|------12---------------------12b14r12--------|-------------------------------------
D|---------------------------------------------|-------------------------------------
A|---------------------------------------------|-------------------------------------
E|---------------------------------------------|-------------------------------------

Stave 2:

E|----------------------------------12--15--(12/15)--17p15--15/17--17/20--20--20--20\\\
B|--12h13--15p13p12\10--12--13--15-----------------------------------------------------
G|-------------------------------------------------------------------------------------
D|-------------------------------------------------------------------------------------
A|-------------------------------------------------------------------------------------
E|-------------------------------------------------------------------------------------

Stave 3:

E|--17----h20p17h20p17h20p17h20p17h20p17h20p17h20p17h20p17h20b22--22--22--22r20--
B|-------------------------------------------------------------------------------
G|-------------------------------------------------------------------------------
D|-------------------------------------------------------------------------------
A|-------------------------------------------------------------------------------
E|-------------------------------------------------------------------------------

Stave 4:

E|--------------12--13p12----------------
B|--13------13-------------13------------
G|------12---------------------12b14r12--
D|---------------------------------------
A|---------------------------------------
E|---------------------------------------

Htio sam ovo baš odsvirati i nigdje na netu nema pa sam odlučio napraviti. Kao početnik koji ne može pjevati ni osnovne melodije dobro sam se napatio da upratim sve note i shvatim šta se svira, eto poslužite se.

Onaj "slide" koji je u zagradi shvatite kao jednu notu, jako brzo se povuče, ostali su normalno jedna nota pa povlačenje na drugu, da se obje čuju već po pjesmi kako ide.
Komentari
Još nema komentara