Hladno Pivo

Konobar

by: Alen Zadravec (aljac385)

Pronađi akord!

Ne znaš kako odsvirati neki od akorda pjesmi Konobar? Upiši akord u tražilicu i saznaj!

Traženi akord će se prikazati ovdje

Od istog izvođača

Pregledano 5468 puta
Pregledano 9409 puta
Pregledano 20714 puta
Pregledano 9159 puta
Pregledano 2368 puta
Trebaš ritam za ovu pjesmu? Pronađi ga ovdje
Akordi/Tabovi:
D                          2x       A        2x     G         A
----------------------------| -----------| -------------------------
----------------------------| -----------| -------------------------
----------------------------| -----------| -------------------------
---------4-4-5-4---4-----| -5-7-5-4---| --4/5/4------------4-----
-----5-7---------7---7-5-| ---------7-| ---------7-5-5-7-7---7---
-5-5-----------------------| -----------|--------------------------

D                      2x              A                      2x
----------------------------| -------------------------|                               
----------------------------| -------------------------|                             
----------------------------| -------------------------|                           
---------4-4-5-4---4-----| -------------------------|                         
-----5-7---------7---7-5-| -4/5/4-------------------|                             
-5-5-----------------------| --------7-5--------------|                             

G                A
----------------------------------
----------------------------------
----------------------------------
------------------------4---------
--4--5-5--7--5--5--7-7-----7------
----------------------------------


D               D
Konobar zijeva, vani lagano svice
     A                      G          A
A ja pijan k'o deva bih jos narucio pice
D
Ali kakva blamaza, jezik lamata krivo
D
Ne zna kako se kaze pelin i pivo
       A
Srecom nije seljober, pa da previse pita
     G                   A
Nego pametan ober sto iz ociju cita

D
---------------------------|
---------------------------|
----------------------------|
---------4-4-5-4---4-----|
-----5-7---------7---7-5-|
-5-5-----------------------|2x

Hm                F#m
Svu moju bol mada nisam ni pisno
   G               A
Pa stavlja na stol jos jednom isto
Hm             F#m
I to je ta kap koja prelijeva casu
G                  A                 A D A G F#m
Placem ko slap dok naginjem flasu

D                      A
Zasto sam ja uvijek ta jebena stranka
        F#m               G
I zasto ti nisi bar s one strane sanka
D                      A
Zasto sam ja uvijek ta jebena stranka
      F#m              G        A
Zasto srodna dusa mora bas biti muska ???

D
Kad si dvojica tak pasu to je bolje od seksa
D
Jedan dodaje casu, a drugi eksa
   A
On nije ni priglup, ni naravi skrte
  G                A
I uvijek mi kriglu natoci do crte

TRUBA SOLO:
D A G A 2x
------------------------------------------------------------------------------------------
-----------------------------------------------------------------------------------------
-----7-6--4----4---4-----4---4--------------7--6-4---4---4---4---4----4-6--------
-------------7---7---7-----7---7---5--4-------------7----7---7---7---7--------------
--5-----------------------------------------5-------------------------------------------
------------------------------------------------------------------------------------------


        Hm                F#m
On kuzi svu moju bol mada nisam ni pisno
   G               A
Pa stavlja na stol jos jednom isto
Hm             F#m
I to je ta kap koja prelijeva casu
G                  A                 A D A G F#m
Placem ko slap dok naginjem flasu

D                      A
Zasto sam ja uvijek ta jebena stranka
        F#m               G
I zasto ti nisi bar s one strane sanka
D                      A
Zasto sam ja uvijek ta jebena stranka
      F#m              G        A
Zasto srodna dusa mora bas biti muska ???

D                      A
Zasto sam ja uvijek ta jebena stranka
        F#m               G
I zasto ti nisi bar s one strane sanka
D                      A
Zasto sam ja uvijek ta jebena stranka
Komentari
Još nema komentara