Dado Topic

Boli me...

by: gakax

Pronađi akord!

Ne znaš kako odsvirati neki od akorda pjesmi Boli me...? Upiši akord u tražilicu i saznaj!

Traženi akord će se prikazati ovdje

Od istog izvođača

Pregledano 1991 puta
Pregledano 39415 puta
Pregledano 12969 puta
Pregledano 10848 puta
Pregledano 10374 puta
Trebaš ritam za ovu pjesmu? Pronađi ga ovdje
Akordi/Tabovi:
Dado Topić
Boli me

Uvod
G1pratnja
      Bm   G7      Em7   F#     Bm
e----------------------------2---
B-------3-------3-----3------2----
G-------4----4--4-----0----3-3-3-
D------4-4--3-3--3---2-2--4-4----
A-----2------------------------
E----------3--------0----2-----
G2solo/vokal           F#          Bm       
e------------------------------------
B---3-------------------2-3-3/5-3-2---
G--4-------------------4-----------4-
D-4---------------------------------4-

G1pratnja
      Bm   G7       Em7   F#...........
e----------------------------2----
B-------3-------3-----3------2---
G-------4----4--4-----0----3-3-3-
D------4-4--3-3--3---2-2--4-4----
A-----2------------------------
E----------3--------0----2-----
           
G2solo/vokal
Em7    F#      G7         F# Em7  G7  F#
e--------------------------------------
B---2-3-5/7-3-2-3----2-3-5-2---2-3----2--
G--4----------------4-------------4--4-3~
D-4---------------------------4---------
A-----------------------------------5----

       Bm          F#
U čija kola sad ulaziš
F#7            Bm Bm-A
gdje li te odvoze
D D#dim7 Em
koga to  darivaš
F#             Bm
onim što moje je
Bm            F#
Sutra će teći laž
F#7       Bm   Bm-A
sa tvojih usana
D D#dim7 Em
priča se ponavlja
F#           Bm  F#
još jedna obmana

Ref.
Bm            F#  Bm
Boli me tvoja izdaja
Bm            A    D  D#dim7
boli me tvoja prevara
      Em   F#   Bm
nisam to zaslužio
G7       Em   F#   Bm
tvoja je igra okrutna

Solo=uvod

Bm          F#
Miris tvoj blag
F#7             Bm  Bm-A
kao da ostavlja trag
D D#dim7   Em
gdje li si krenula
F#             Bm
koji te goni vrag

Bm          F#
Što bih ti radio
F#7             Bm Bm-A
kad ne bih te volio
D D#dim7   Em
bez imalo milosti
F#            Bm Bm-A-G7
u kavez zatvorio


Ref.
Bm            F#  Bm
Boli me tvoja izdaja
Bm            A    D  D#dim7
boli me tvoja prevara
      Em   F#   Bm Bm-A-G7
nisam to zaslužio
G7       Em   F#   Bm Bm-A-G7
tvoja je igra okrutna

Bm            F#  Bm
Boli me tvoja izdaja
Bm            A    D  D#dim7
boli me tvoja prevara
      Em   F#   Bm Bm-A-G7
nisam to zaslužio
G7       Em   F#   G7
tvoja je igra okrutna
         Em   F#  Bm
Tvoja je igra opasna

Harmonici (flagioleti)na 7 polju
e-----*7--
B---*7----
G-*7------

Bm            F# 
Tvoja me nevjera
F#7         Bm Bm-A
baca na koljena
D D#dim7   Em
pomozi mi, reci bar
F#              Bm
da nisi me voljela

Na kraju:Harmonici (flagioleti)na 7 polju
e-*7--
B-*7--
G-*7--
D-*7--

Neki akordi:
  Em7  G7  D#dim7 F#7
e--0---5---2------2---
B--3---5---1------5---
G--0---4---2------3----
D--2---3---1------2---
A------5----------4--
E--0---3----------2--
Komentari

XSARA kaže:

Šta žuriš blento.pomalo...
Akordi/Tabovi:
Em7  G7  D#dim7 F#7
e--0---3---2------2---
B--3---3---1------5---
G--0---4---2------3----
D--2---3---1------2---
A------5----------4--
E--0---3----------2--

15-06-2014 22:44