Haunted

No Compromise

by:

Pronađi akord!

Ne znaš kako odsvirati neki od akorda pjesmi No Compromise? Upiši akord u tražilicu i saznaj!

Traženi akord će se prikazati ovdje

Od istog izvođača

Pregledano 1649 puta
99
Pregledano 1653 puta
Pregledano 1752 puta
Pregledano 1614 puta
Pregledano 1550 puta
Trebaš ritam za ovu pjesmu? Pronađi ga ovdje
Akordi/Tabovi:
Standard tuning down one step to d-tuning


P=Pause
M=Mute


Intro

d|----------|----------------------------------------|
a|----------|----------------------------------------|
f|(slide)---|----------------------------------------|
c|----------|--------------------------99---88--1212-|X4
g|-9-7-9--8-|-----1010---99---88---------------------|
d|-7-5-7--6-|0-000-----0----0----0-000----0----0-----|


Verse

d|---------------------------------------------------------------|
a|---------------------------------------------------------------|
f|---------------------------------------------------------------|
c|---------------------------------------------------------------|x2
g|0-0-2-1-0-0-1-2-0-0-2-1-0-0-1-2-0-0-2-1-0-0-1-2-0-0-0-1-1-1-0--|
d|0-0-2-1-0-0-1-2-0-0-2-1-0-0-1-2-0-0-2-1-0-0-1-2-0-0-0-1-1-1-0--|



Prechorus

d|------------------------------------------------------------------|
a|------------------------------------------------------------------|
f|------------------------------------------------------------------|
c|------------------------------------------------------------------|
g|------------------------------------------------------------------|
d|2-2-2-2-2-3-3-3-5-5-5-5-6-6-6-6-3-3-3-3-5-5-5-5-6-6-6-6-8-8-8-8---|



chorus

d|--------------------------------------------------|
a|----------------------------------m-m-m-m-m-------|
f|------------m-m-m-m-------------------------------|
c|--------------------------9-9-7-9-9-9-9-9-9-------|
g|9-8-7-0-5-0-0-0-0-0-9-8-7-7-7-5-7-7-7-7-7-7-7-----|
d|7-6-5-0-3-0-0-0-0-0-7-6-5-------------------5-----|



Breakdown

d|--------|--|--------------------------------|
a|--------|--|--------------------------------|
f|--------|--|--------------------------------|
c|--------|x2|-8-7----------------------------|
g|--------|--|----0-5-6-5-7-6-0-5-6-5-7-6-0-5-|
d|00000000|--|--------------------------------|

its not perfect but ow well, distort it.

-
-play prechorus between breakdown/breakdowns



d|------------------------------------------------------|
a|------------------------------------------------------|
f|------------------------------------------------------|
c|------------------------------------------------------|
g|----p------p------p------p------p------p------p-------|
d|2-1--0-1-2--0-2-1--0-1-2--0-2-1--0-1-2--0-2-1--0-1-1--|


-after ^ play the following-

-prechorus

-chorus

-intro
Komentari
Još nema komentara