Haunted

Bury Your Dead

by:

Pronađi akord!

Ne znaš kako odsvirati neki od akorda pjesmi Bury Your Dead? Upiši akord u tražilicu i saznaj!

Traženi akord će se prikazati ovdje

Od istog izvođača

Pregledano 1614 puta
Pregledano 1647 puta
Pregledano 1678 puta
Pregledano 1751 puta
99
Pregledano 1652 puta
Trebaš ritam za ovu pjesmu? Pronađi ga ovdje
Akordi/Tabovi:
..  - palm mute          /  - slide up to
\  - slide down to      ~  - vibrato
h  - hammer on          b  - bend
p  - pull off            Suffixes for bend
                          ph - pinch harmonic
                           f - full bend    h - half bend
*  - see comment           r - release      t - tap bend
X  - percussion mute       ~ - vibrato bend
@  - slight palm mute     () - ghost note, sustained note



--Bury your dead--


Riff A (played twice)
|-----------------------------------|
|-----------------------------------|
|-----------------------------------|Gtr
|-----------------------------------|I+II
|-----7---8-------11-10-8-7-10--8-7-|
|-0-0---0---0-0-0-------------------|
  . .   .   . . .


|-----------------------------------|
|-----------------------------------|
|-----------------------------------|Gtr
|---------------------------9--8----|I+II
|-----7---8-------11-10-8-7------10-|
|-0-0---0---0-0-0-------------------|
  . .   .   . . .


|--------------------------------------|
|--------------------------------------|
|--------------------------------------|Gtr
|-------------------------8-7h8p7------|I+II
|-----7---8-------11-10-8---------10-8-|
|-0-0---0---0-0-0----------------------|
  . .   .   . . .

   *      **
|-----------------|------|---------------------------|
|-----------------|------|---------------------------|
|-----------------|-4----|---------------------------|Gtr  (*   first ending)
|-----------------|-4--5-|---5--5---8--8--------3--3-|I+II (** second ending)
|-----7---8-------|-2--5-|---3--3---6--6--------3--3-|
|-0-0---0---0-0-0-|----3-|-0-3--3-0-6--6------0-1--1-|
  . .   .   . . .          .      .


Riff B
|--------------------------------------------------------------------|
|--------------------------------------------------------------------|
|--------------------------------------------------------------------|Gtr
|-----2---3---2h3---------------------2---3---2h3--------------------|I+II
|-----2---3---2h3---------------------2---3---2h3---------2~--1------|
|-0-0---0---0-----4-3-1-0-3~--1-0-0-0---0---0-----4-3-1-0-------3----|
  . .   .   .     . . . .         . .   .   .     . . . .


|--------------------------------------------------------------------|
|--------------------------------------------------------------------|
|--------------------------------------------------------------------|Gtr
|-----2---3---2h3-----------------------2---3---2h3---5--5----8--8---|I+II
|-----2---3---2h3-------1-0h1p0---------2---3---2h3---3--3----6--6---|
|-0-0---0---0-----4-3-1---------3-1-0-0---0---0-----0-3--3-0--6--6---|
  . .   .   .     . . .             . .   .   .     .      .


Riff C (play twice)
|--------------------------------------------------------------------|
|--------------------------------------------------------------------|
|--------------------------------------------------------------------|Gtr
|-----4---5---4-5-4-------------------4---5---4-5--------------------|I+II
|-----4---5---4-5-4-------1-----------4---5---4-5-4------------------|
|-2-2---2---2-------2-2-3---3-2-5-2-2---2---2-------5555553666666----|
  . .   .   .       . . .         . .   .   .       .............


Riff D (while Gtr I plays riff A)
|--------------------------------------------|
|--------------------------------------------|
|--------------------------------------------|Gtr
|-2------5-9-8----3--5--2------5-9-8----9--5-| II
|-2------5-9-8----3--5--2------5-9-8----9--5-|
|-0------3-7-6----1--3--0------3-7-6----7--3-|



Riff Ea (while Gtr II fading the E)
|--------------------------------------------------------------------|
|--------------------------------------------------------------------|
|--------------------------------------------------------------------|Gtr
|--------------------------------------------------------------------| I
|--------------------------------------------------------------------|
|-1-0--3-0--5-0--6-0--7-0-0-7-8-7-0--7-6-0-6-5-0-4-1-0-3-1-0---------|


Riff Eb
|--------------------------------------------------------------------|
|--------------------------------------------------------------------|
|--------------------------------------------------------------------|Gtr
|--------------------------------------------------------------------|I+II
|--------------------------------------------------------------------|
|-1-0-0-3-0-0-5-0-0-6-0-0-7-0-0-7-8-7-0-7-6-0-6-5-0-4-1-0-3-1-0------|


Riff F
|--------------------------------------------------------|
|--------------------------------------------------------|
|--------------------------------------------------------|Gtr
|-2------------2------------2----------------------------|I+II
|-2---5--------2---5--------2---5------------------------|
|-0-----3-1~---0-----3-1~---0-----3-1~---1-0-0-3-0-0-5-0-|



|--------------------------------------------------------|
|--------------------------------------------------------|
|--------------------------------------------------------|Gtr
|-2------------2------------2----------------------------|I+II
|-2---5--------2---5--------2---5------------------------|
|-0-----3-1~---0-----3-1~---0-----3-1~---3-0-0-5-0-0-6-0-|


Riff G (Rhythm on solo)
|-------------------------------------------------|
|-------------------------------------------------|
|-------------------------------------------------|Gtr
|-7------3----------------------------------------| II
|-7------3--------7-----7-------10-7-----7---10---|
|-5------1------0---0-0---0-0-0------0-0---0----0-|
                .   . .   . . .      . .   .    .


|-------------------------------------------------|
|-------------------------------------------------|
|-------------------------------------------------|
|-7------3----------------------------------------|
|-7------3--------7-----7-------5h7-----7---5-----|
|-5------1------0---0-0---0-0-0-----0-0---0---0---|
                .   . .   . . .     . .   .   .
Komentari
Još nema komentara