Željko Bebek

Gdje Sam Bio - Intro solo

by: MarkecKnopfler

Pronađi akord!

Ne znaš kako odsvirati neki od akorda pjesmi Gdje Sam Bio - Intro solo? Upiši akord u tražilicu i saznaj!

Traženi akord će se prikazati ovdje

Od istog izvođača

Pregledano 6775 puta
Pregledano 21839 puta
Pregledano 13635 puta
Pregledano 25689 puta
Pregledano 2488 puta
Trebaš ritam za ovu pjesmu? Pronađi ga ovdje
Akordi/Tabovi:
GDJE SAM BIO - ZELJKO BEBEK - INTRO

Evo ovo bi trebalo biti ovako, mrvicu sam možda pogriješio ali uglavnom je to to.



E----------------------------------------------------------------------
B----12-14-15-14-12----------------------------------------------
G-----------------------------14--14s11-11--9---9h11--11-----
D-----------------------------------------------------------------------
A------------------------------------------------------------------------
E------------------------------------------------------------------------



E------------------------------------------------------------
B----12-14-15-14-12-14--15~--17--15--14-12--
G------------------------------------------------------------
D------------------------------------------------------------
A------------------------------------------------------------
E------------------------------------------------------------


E---------------------------------------------------------------------
B----12-14-15-14-12---------------------------------------------
G------------------------------14--14s11-11--9---9h11--11---
D----------------------------------------------------------------------
A-----------------------------------------------------------------------
E----------------------------------------------------------------------


E---------------------------------------------------------------
B---------------------------------------------------------------
G--11--9--9--11--9s7-------------------------------------
D-----------------------------9--7h9--------------------------
A----------------------------------------------------------------
E---------------------------------------------------------------
Komentari

solomun kaže:

Nisam neki gitarista(nikakav) ali solo počinje sa tonom
Dis a to nije 12 prag nego 11 tako stoji na shemi
od gitare znači da nisi pogodio
tonalitet da bi napisao solo početak gitare.
Cilj je napisati original a nek se drugi misle odakle će
svirati.

03-01-2014 18:52

zekozeko kaže:

covjek lijepo napisa da je mozda malo pogrijesio.....

03-01-2014 20:40

solomun kaže:

Još mi samo ti fališ za diskusiju o glazbi.

03-01-2014 20:45

zekozeko kaže:

Dok ne napises kako valja,nema diskusije

03-01-2014 20:50

solomun kaže:

Napisao sam ja kako valja samo ti ne razumiješ o čemu ja govorim.

03-01-2014 21:31

zekozeko kaže:

O.K.

03-01-2014 21:59

XSARA kaže:

Pa zapravo nisam slušao cijelu pjesmu , ali prema prvoj snimci koju mi je izbacio YT, to bi išlo ovako
Akordi/Tabovi:
e-11-13-13b14r13-11-----------------------
B-------------------14-14-11-11-11-14-11--
G---------------------------------


e-11-13-13b14r13-11-13-13b14~-16-14-13-11-
B------------------------------------------
G---------------------------------

05-01-2014 16:01

Castor.2391 kaže:

Mozda moze i ovako :)

E||-11-13-14p13-11-------------------------9---------------||
B||-----------------------14-14\11-11-9-11---11------------||
G||----------------------------------------------------------------||

E||--11-13-14p13-11-13-14v--16-14-13h14p13---------||
B||----------------------------------------------------------16----||
G||-----------------------------------------------------------------||

E||-11-13-14p13-11-------------------------9---------------||
B||-----------------------14-14\11-11-9-11---11------------||
G||----------------------------------------------------------------||

E||-----------------------------------------------------------------||
B||-9-11-9h11p9-----------------------------------------------||
G||------------------11-8-----8----------------------------------||
D||-------------------------11-------------------------------------||

07-01-2014 22:14