Ivan Zak

Škripi veza

by:

Pronađi akord!

Ne znaš kako odsvirati neki od akorda pjesmi Škripi veza? Upiši akord u tražilicu i saznaj!

Traženi akord će se prikazati ovdje

Od istog izvođača

Pregledano 8138 puta
Pregledano 1794 puta
Pregledano 3674 puta
Pregledano 6297 puta
Pregledano 13719 puta
Trebaš ritam za ovu pjesmu? Pronađi ga ovdje
Ivan Zak - Skripi veza

Cijela pjesma je Am-F-C-G
Na nekim djelovima svira akorde na višim poljima tj
Am-na 12 polju
F- na 8 polju
C- na 8 polju
G- na 10 polju


Am F
Poziv je na cekanju
C
Veza je u pitanju
G
Javi se da ti cujem glas
Am
Hajde spasi nas
F
Ne znam sto si skrivila
C
To me sad ne zanima
G Am
Veza nam zaskripila

SOLO:
e---------------------------------------------------------------------------------------------------------
b---------------------------------------------------------------------------------------------------------
g----------------------------5---4------------------------------------7---5---4---5---4s5---5---4---5--
d---5s7---7----5---7-------------7---5----5s7----7---5---7-----------------------------------------
a---------------------------------------------------------------------------------------------------------
e---------------------------------------------------------------------------------------------------------

e--------------------------------------------------------------------------
b--------------------------------------------------------------------------
g---5s9---7---5---7---7s0-----4s5---4--------------------------------
d-------------------------------------------------7---5----------------------
a-------------------------------------------------------------------------
e-------------------------------------------------------------------------


e---------------------------------------------------------------------------------------------------------
b---------------------------------------------------------------------------------------------------------
g--------------------------5---4---------------------------------------7---5---4---5---4s5---5---4---5--
d---5s7---7----5---7-------------7---5----5s7----7---5---7-----------------------------------------
a---------------------------------------------------------------------------------------------------------
e---------------------------------------------------------------------------------------------------------

e--------------------------------------------------------------------------
b--------------------------------------------------------------------------
g---5s9---7---5---7---7s0-----4s5---4--------------------------------
d---------------------------------------------7---5----7s0--------------
a-------------------------------------------------------------------------
e-------------------------------------------------------------------------


Danima se ne vidimo
Sve se rijedje cujemo
Ne zam zasto jos u pravu
Ljubav mi se kunemo


Refren:
Poziv je na cekanju
Veza je u pitanju
Javi se da ti cujem glas
Hajde spasi nas

Ne znam sto si skrivila
To me sad ne zanima
Veza nam zaskripila

Poziv je na cekanju
Veza je u pitanju
Cujem da si bila s drugim
Ti u skitanju

Ne znam sto si skrivila
To me sad ne zanima
Veza nam zaskripila

Ljulja truba oko mene
Jer ne pita za mene
Danima se moja draga
Pravi da ne pizna me





Refren:
Poziv je na cekanju
Veza je u pitanju
Javi se da ti cujem glas
Hajde spasi nas

Ne znam sto si skrivila
To me sad ne zanima
Veza nam zaskripila

Poziv je na cekanju
Veza je u pitanju
Cujem da si bila s drugim
Ti u skitanju

Ne znam sto si skrivila
To me sad ne zanima
Veza nam zaskripila

Refren:
Poziv je na cekanju
Veza je u pitanju
Javi se da ti cujem glas
Hajde spasi nas

Ne znam sto si skrivila
To me sad ne zanima
Veza nam zaskripila

Poziv je na cekanju
Veza je u pitanju
Cujem da si bila s drugim
Ti u skitanju

Ne znam sto si skrivila
To me sad ne zanima
Veza nam zaskripila
Komentari
Još nema komentara