Ivan Zak

Tko mi te krade/v2

by: lovro630

Pronađi akord!

Ne znaš kako odsvirati neki od akorda pjesmi Tko mi te krade/v2? Upiši akord u tražilicu i saznaj!

Traženi akord će se prikazati ovdje

Od istog izvođača

Pregledano 26691 puta
Pregledano 3222 puta
Pregledano 4033 puta
Pregledano 336 puta
Pregledano 5821 puta
Trebaš ritam za ovu pjesmu? Pronađi ga ovdje
Akordi/Tabovi:
Capo 1. polje

Em
Tvoja godi mi ljepota
C
i nije me sramota,
G
priznati da jos uvijek
D
volim te i da si
Em
sirota,da ti nije do zivota.
C G D
Mene zauvijek ti bi imala,
Em
samo kad bi
C
da me volis
G D
nocas priznala.

REF.
C
Gdje si mi nocas
G
tko mi te krade,
D
da li jos uvijek
Em
za nas ima nade.

C
Da s drugim te vidim
G
za to nemam snage,
D
a druge mi nisu
Em
ni lijepe ni drage.

Dva puta se ponavlja refren i na kraju ide:

C D
A druge mi nisuuu
Em
ni lijepe ni drage.

SOLO:
e-||------------------------------------------------------------------||
B-||------------------------------------------------------------||
G-||-----------------8-10-10--10-8--------------------------------||
D-||-----6-8-/-10---------------------11-10-------------------------||
A-||-/-8----------------------------------------------------------||
E-||--------------------------------------------------------------||

e-||------------------------------------------------------------------||
B-||--------------------------------------------------------------||
G-||--8------8-----8-------8------8------8---/10-10------------------||
D-||-----10----10-------------10----10-----------------------------||
A-||------------------------------------------------------------||
E-||--------------------------------------------------------------||

e-||------------------------------------------------------------------||
B-||------------------------------------------------------------||
G-||-----------------8-10-10--10-8--------------------------------||
D-||-----6-8-/-10---------------------11-10-------------------------||
A-||-/-8----------------------------------------------------------||
E-||--------------------------------------------------------------||

e-||------------------------------------------------------------------||
B-||------------------------------------------------------------||
G-||----6-5--3-/5---------------------------------------------------||
D-||-------------------8-6-5--------------------------------------||
A-||----------------------------8a--------------------------------||
E-||--------------------------------------------------------------||


Cuvam tvoju sliku

na jednom tajnom mjestu,

u starom pretincu mojih dugova

gdje stoje svi racuni iz proslosti moje

koje nikad necu moci platiti.

E da se barem mozes nocas meni vratiti.

REF. x2
Komentari

zbunjoza kaže:

Ne znam šta si hteo sa ovom drugom verzijom.
Ona prva je i tačnija i iz pravog tonaliteta je.

10-07-2013 15:36

lovro630 kaže:

Pa mislim da je ovo lakse...

14-07-2013 14:10

zbunjoza kaže:

Bila bi još lakša da si samo prepiso akorde za pola tona niže od Fm.

14-07-2013 14:54