Bajaga

Tisina (1. i 2. solo)

by: r3xcss

Pronađi akord!

Ne znaš kako odsvirati neki od akorda pjesmi Tisina (1. i 2. solo)? Upiši akord u tražilicu i saznaj!

Traženi akord će se prikazati ovdje

Od istog izvođača

Pregledano 5162 puta
Pregledano 8078 puta
Pregledano 70612 puta
Pregledano 7561 puta
Pregledano 14478 puta
Trebaš ritam za ovu pjesmu? Pronađi ga ovdje
|------------------------------------------------
|-------------------------------5---------------
|------------------4-5--4-5-----7------------
|-------5~----7-----------------------9-7-5--
|------------------------------------------------
|------------------------------------------------



|-----------------------------------------------------------------------------
|--------------------------------------5---------10-8--10-8--10-10~-
|--------4-5-------------4-5--4-5-----7---------------------------------
|--5-7------------5-7------------------------------------------------------
|-----------------------------------------------------------------------------
|-----------------------------------------------------------------------------



|----------------------------------------------------------------------------------------------
|----------------------5--------------------10-8~---------8--------------------------------
|---------4-5--4-5------7-----------------------------7\9----9/7----5-4-----------------
|--5-7--------------------------9-7-5-----------------------------------------7-5---5-7--
|-----------------------------------------------------------------------------------------------
|-----------------------------------------------------------------------------------------------
Komentari
Još nema komentara