Bajaga

Verujem, ne verujem v2

by:

Pronađi akord!

Ne znaš kako odsvirati neki od akorda pjesmi Verujem, ne verujem v2? Upiši akord u tražilicu i saznaj!

Traženi akord će se prikazati ovdje

Od istog izvođača

Pregledano 3991 puta
Pregledano 275334 puta
Pregledano 4588 puta
220
Pregledano 13155 puta
Pregledano 10914 puta
Trebaš ritam za ovu pjesmu? Pronađi ga ovdje
Akordi/Tabovi:
UVOD x2:
  Amol        C        Gdur     Cdur     Fmaj7
-------------------------------------------------------
-------------------------------------------1--1---1--1-
----2---2-------2---2----0---0----0---0-----0---2------
------2-----------2-----------------2----3---------3---
--0-----------3------------2----3----------------------
-----------------------3-------------------------------

-------------------------------------------------------
-----1---1----1---1------------------------------------
-------------------------------------------------------
---2---0-----------------------------------------------
------------3---2--------------------------------------
-------------------------------------------------------

Prva strofa se svira kao uvod:

Gluvo je doba svi zaspali
osecam strasan nedostatak buke
hocu da vristim a ne mogu sam
ljudi su danas osetljivi na zvuke

refren:
jer je noc, noc, noc, noc
totalni je mrak
nista se vise ne vidi u tami
ovo svetlo je usamljeni zrak
osecam ipak k'o da nismo sami
ti i ja

akordi:
Am  G   C    F  C      G    Am
    Verujem  -  Ne verujem       x2

Am           G     C
Ustani, nije vreme spavanja
F              C          G
Dodji da cujes pobednicke trube
Napi se vodom sa ovog izvora
Napolju ljudi pevaju kroz zube

Refren: Jer je noc, noc....

Cekamo jutro da se razdani,
Da neko dodje i donese svecu
U ovom mraku covek ne vidi
A ja da cekam ne mogu i necu

Refren: Jer je noc, noc....

Ustani, nije vreme spavanja
Dodji da cujes pobednicke trube
Napi se vodom sa ovog izvora
Napolju ljudi pevaju kroz zube

Refren: Jer je noc, noc....
Komentari
Još nema komentara