Opća Opasnost

Ne dirajte Zupanju

by:

Pronađi akord!

Ne znaš kako odsvirati neki od akorda pjesmi Ne dirajte Zupanju? Upiši akord u tražilicu i saznaj!

Traženi akord će se prikazati ovdje

Od istog izvođača

Pregledano 13531 puta
Pregledano 4744 puta
Pregledano 8730 puta
Pregledano 9017 puta
Pregledano 19276 puta
Trebaš ritam za ovu pjesmu? Pronađi ga ovdje
Akordi/Tabovi:
Opca Opasnost - Ne Dirajte Zupanju

Intro Solo

   F#m
E||--------------------------------------------------------------------------------------------||
B||----15----17b(19)-17--12b(14)rb(12)-------17------------------------------------------------||
G||-14---------------------------------14-----------16-----14---14-16-16b(18)-16b(18)rb(16)----||
D||--------------------------------------------------------------------------------------------||
A||--------------------------------------------------------------------------------------------||
E||--------------------------------------------------------------------------------------------||

E||--------------------------------------------------------------------------------------------||
B||----15----17b(19)-17--12b(14)rb(12)---------------------------------------------------------||
G||-14---------------------------------14--13--13-14-14b(16)rb(14)-13--11----13b(14)rb(13)-11--||
D||--------------------------------------------------------------------------------------------||
A||------------------------------------------------------------------------------------------- ||
E||--------------------------------------------------------------------------------------------||

F#m       E                 F#m
    Zasto rusite nebo iznad nas,
         E                F#m
ciji nam sinovi rano gase dan.
           E                F#m
Nije mogla mati rodit takvu zvijer,
           E                   F#m
sto u krvi neduznih gasi svoju zedj.

          E                       F#m
Uzalud ti trazis majko svoje sinove,
            E                  F#m
grobove bez imena zoves po njima.
            E                        F#m
Lazes sebe, lazes druge, da oni nisu tu,
                E                      F#m 
negdje dalje od doma svog brane Hrvatsku.


D5            E5 D5 A5  D5       E5 D5 A5
   Ne dirajte Zupanju,      moju Zupanju,
B5                      F#5
   zemljo nasih djedova,    nama pripadas.
D5        E5         F#5
Zivjet ces   dok je nas.

D5            E5 D5 A5  D5       E5 D5 A5
   Ne dirajte Zupanju,      moju Zupanju,
D5                   A5
   sinovi smo oceva,    sinovi Hrvata.
  B5                 D5     E5    F#5             
Ne damo na tvoje ime,  ne damo na brata.

Solo F#m

E||-----------------------------------------------------------------------------------------------------||
B||-----15----17b(19)-17--14-12b(14)rb(12)------------17------------------------------------------------||
G||-/14------------------------------------14---14-14--------16-----14---14-16-16b(18)-16b(18)rb(16)----||
D||-----------------------------------------------------------------------------------------------------||
A||-----------------------------------------------------------------------------------------------------||
E||-----------------------------------------------------------------------------------------------------||

E||--------------------------------------------------------------------------------------------||
B||----15----17b(19)-17--12b(14)rb(12)---------------------------------------------------------||
G||-14---------------------------------14--13--13-14-14b(16)rb(14)-13--11----13b(14)rb(13)-11--||
D||--------------------------------------------------------------------------------------------||
A||------------------------------------------------------------------------------------------- ||
E||--------------------------------------------------------------------------------------------||

F#m        E                  F#m
    Domove obranili, otjerali zvijer,
           E                F#m
ime smo sacuvali umorili im bijes.
             E                 F#m
A oci tuzne, umorne jos su cekale.
           E                    F#m
I suza nas ugasile, plamen istine.

D5            E5 D5 A5  D5       E5 D5 A5
   Ne dirajte Zupanju,      moju Zupanju,
B5                      F#5
   zemljo nasih djedova,    nama pripadas.
D5        E5         F#5
Zivjet ces   dok je nas.

D5            E5 D5 A5  D5       E5 D5 A5
   Ne dirajte Zupanju,      moju Zupanju,
D5                   A5
   sinovi smo oceva,    sinovi Hrvata.
  B5                 D5     E5    F#5             
Ne damo na tvoje ime,  ne damo na brata.
D5            E5 D5 A5  D5       E5 D5 A5
   Ne dirajte Zupanju,      moju Zupanju,
D5                     A5
  zemljo nasih djedova,  nama pripadas.
D5        E5         F#5
Zivjet ces   dok je nas.
Komentari

LoLa kaže:

Nije valjda cila strofa riff sa 5-ma
Neko bi to možda popratio i sa akordima
(dur ili mol izjasni se)

24-03-2012 14:44