Puddle Of Mudd

Control

by: Guitar360

Pronađi akord!

Ne znaš kako odsvirati neki od akorda pjesmi Control? Upiši akord u tražilicu i saznaj!

Traženi akord će se prikazati ovdje

Od istog izvođača

Pregledano 1845 puta
Pregledano 1991 puta
Pregledano 2055 puta
Pregledano 2159 puta
Pregledano 2882 puta
Trebaš ritam za ovu pjesmu? Pronađi ga ovdje
Akordi/Tabovi:
Puddle of Mudd - Control

Intro:
e-----------------------------------------------
b-----------------------------------------------
g--6-6-6/9--9-9-9/8-----------------------------
d--6-6-6/9--9-9-9/8--9-9-9---4-4-4---2---------- x2
a--4-4-4/7--7-7-7/6--9-9-9---4-4-4---2----------
e--------------------7-7-7---2-2-2---0----------

then

e------------------------------------
b------------------------------------
g--4/666/999/88/11-11-11/999/8-------
d------------------------------------ x2
a--2/444/777/66/9--9---9/777/6-------
e------------------------------------

Chorus:
e-----------------------------------------------
b-----------------------------------------------
g--6-6-6/9--9-9-9/8-----------------------------
d--6-6-6/9--9-9-9/8--9-9-9---4-4-4---2---------- x4
a--4-4-4/7--7-7-7/6--9-9-9---4-4-4---2----------
e--------------------7-7-7---2-2-2---0----------
Komentari
Još nema komentara