Riblja Čorba

Kad Hodaš

by:

Pronađi akord!

Ne znaš kako odsvirati neki od akorda pjesmi Kad Hodaš? Upiši akord u tražilicu i saznaj!

Traženi akord će se prikazati ovdje

Od istog izvođača

Pregledano 7504 puta
Pregledano 10025 puta
Pregledano 2904 puta
Pregledano 1679 puta
Pregledano 5079 puta
Trebaš ritam za ovu pjesmu? Pronađi ga ovdje
Akordi/Tabovi:
Uvod na klaviru (lakša verzija)
|-5-4-2-----0------0------------4-5--10-9-7-9-7-5-2-|
|---------2----0-2---3-2-0-2-0----------------------|
|---------------------------------------------------|
|---------------------------------------------------|
|---------------------------------------------------|
|---------------------------------------------------|

|-9-7-5-0----2-|
|----------2---|
|--------------|
|--------------|
|--------------|
|--------------|

D       F#m       A         Bm
Vece ne mirise na rakove i skoljke
Mesec je bleda fleka boje cimeta
Uzimas cipele za setanje kroz snove
Ulica voli ritam tvojih koraka.

Vetar se provlaci kroz nepoznate reci
Asfalt se miluje sa tvojim stiklama
Suvise mekan da bi mogao da spreci
Ovo je vece puno tvojih tragova.

A          E          A
Kad hodas, ne zastajkujes
A      E         A
Zemlju ne dodirujes
A      E         D
A mene ne primecujes i uporno se trudis
da me prode pozuda
Jos drhtim od tvog pogleda
Iz nekih starih razloga ne mogu da se sredim.

Solo
E|------12-12--10-9-------------12-12--10-9-------------12-12-12-10-12-14-15~--|
B|--9~--------------12^-10------------------12^-10-----------------------------|
G|-----------------------------------------------------------------------------|
D|-----------------------------------------------------------------------------|  - 2X
A|-----------------------------------------------------------------------------|
E|-----------------------------------------------------------------------------|

D       F#m       A         Bm
Vece ne mirise na rakove i skoljke
Mesec je bleda fleka boje cimeta
Uzimas cipele za setanje kroz snove
Ulica voli ritam tvojih koraka

A          E          A
Kad hodas, ne zastajkujes
A      E         A
Zemlju ne dodirujes
A      E         D
A mene ne primecujes i uporno se trudis
da me prode pozuda
Jos drhtim od tvog pogleda
Iz nekih starih razloga ne mogu da se sredim.

Solo je isti samo ima jedna mala izmjena:
E|------12-12--10-9-------------12-12--10-9-------------12-12-12-10-12-14-15~-----14-12-10-10/9----|
B|--9~--------------12^-10------------------12^-10----------------------------------------------10-|
G|-------------------------------------------------------------------------------------------------|
D|-------------------------------------------------------------------------------------------------|
A|-------------------------------------------------------------------------------------------------|
E|-------------------------------------------------------------------------------------------------|

                                                                                  Outro:
E|------12-12--10-9-------------12-12--10-9-------------12-12-12-10-12-14-15~--|--0-----5--4--2---2-|
B|--9~--------------12^-10------------------12^-10-----------------------------|--2-------------2---|
G|-----------------------------------------------------------------------------|--2-----------------|
D|-----------------------------------------------------------------------------|--2-----------------|
A|-----------------------------------------------------------------------------|--0-----------------|
E|-----------------------------------------------------------------------------|--0-----------------|

^ - bend up
~ - vibrato
Komentari

straight-band kaže:

E|------12-12--10-9---------12-12--10-9-----------12-12-12-10-12-14-15~---14-12-10-10/9-
B|--9~-------------12^-10----------------12^-10----------------------------------------10
G|---------------------------------------------------------------------------------------
D|---------------------------------------------------------------------------------------A|--------------------------------------------------------------------------------------
E|---------------------------------------------------------------------------------------


E|------12-12--10-9-------------12-12--10-9-------------12-12-12-10-12-14-15~--
B|--9~--------------12^-10------------------12^-10-----------------------------
G|-----------------------------------------------------------------------------
D|-----------------------------------------------------------------------------
A|-----------------------------------------------------------------------------
E|-----------------------------------------------------------------------------

Outro
E|---0----5--4--2-----2-
B|---2--------------2---
G|---2------------------
D|---2------------------
A|---0------------------
E|---0------------------ ...

Evo da bude malo preglednije

03-01-2012 18:54

Arnold Layne kaže:

Akordi/Tabovi:
E|------12-12--10-9---------12-12--10-9-----------12-12-12-10-12-14-15~---14-12-10-10/9-
B|--9~-------------12^-10----------------12^-10----------------------------------------10
G|---------------------------------------------------------------------------------------
D|---------------------------------------------------------------------------------------A|--------------------------------------------------------------------------------------
E|---------------------------------------------------------------------------------------


E|------12-12--10-9-------------12-12--10-9-------------12-12-12-10-12-14-15~--
B|--9~--------------12^-10------------------12^-10-----------------------------
G|-----------------------------------------------------------------------------
D|-----------------------------------------------------------------------------
A|-----------------------------------------------------------------------------
E|-----------------------------------------------------------------------------

Outro
E|---0----5--4--2-----2-
B|---2--------------2---
G|---2------------------
D|---2------------------
A|---0------------------
E|---0------------------ ..

04-01-2012 14:35