System Of A Down

Spiders

by: Guitar360

Pronađi akord!

Ne znaš kako odsvirati neki od akorda pjesmi Spiders? Upiši akord u tražilicu i saznaj!

Traženi akord će se prikazati ovdje

Od istog izvođača

Pregledano 1004 puta
Pregledano 1910 puta
Pregledano 1294 puta
Pregledano 7047 puta
Pregledano 1546 puta
Trebaš ritam za ovu pjesmu? Pronađi ga ovdje
Akordi/Tabovi:
System of a Down - Spiders
Tuning: Drop C (CGCFAD)


h - Hammer-On
(#) - Tremolo Pick
/ - Slide

Amount of distortion used written near tab line, applies to all in tab
under same name.

Intro/Verse A Part 1 (2x)
|-------------------------|
|-------------------------|
|-------------------------|
|-------------------------| Light Distortion
|---7---7---5---5---5-----|
|-0---0---0---0---0---0-0-|

Intro/Verse A Part 2 (1x)
|----------------------|
|----------------------|
|----------------------|
|----------------------| Light Distortion
|-8---7---10---7---7h8-|
|---0---0----0---0-----|

Intro/Verse A Part 1 (2x)

Part 2 (1x)

Part 1 (2x)

Part 2 (1x)

Part 1 (1x)

Chorus Part A
|-------------------------------|
|-------------------------------|
|-------------------------------|Heavy Distortion
|-10-10-10-10-10-10-10-10-10-10-|Keep Going Until You Feel Done
|-10-10-10-10-10-10-10-10-10-10-|
|-10-10-10-10-10-10-10-10-10-10-|

Chorus Part B
|----------------------------------|
|----------------------------------|
|-14-12-15-14-12/14--12-12/14-(10)-|Light Distortion
|--x--x--x--x--x/-x---x--x/-x--(x)-|
|-12-10-13-12-10/12--10-10/12--(8)-|
|----------------------------------|

Chorus Part C
|------------------------------------------|
|------------------------------------------|
|------------------------------------------|Heavy Distortion
|-10-10-10-10-10-10-10-8-8-8-8-8-7-7-7-7-7-|
|-10-10-10-10-10-10-10-8-8-8-8-8-7-7-7-7-7-|
|-10-10-10-10-10-10-10-8-8-8-8-8-7-7-7-7-7-|

Verse 2 Part A (4x)
|---------------|
|---------------|
|-9-9-7-7-7-777-|Light Distortion
|-x-x-x-x-x-xxx-|
|-7-7-5-5-5-555-|
|---------------|

Chorus Part B (1x)

Verse 2 Part A (2x)

Chorus Part B (1x)

Chorus Part A

Chorus Part B

Chorus Part C

Solo Part A (2x)
|------------------------|
|------------------------|
|-(14)-----(15)-----(18)-|Heavy
|-(-x)-----(-x)-----(-x)-|
|-(12)-----(13)-----(16)-|
|------------------------|

Solo Part B (2x)
|----------------------------------------------------|
|----------------------------------------------------|
|----19----19----19----19----19----19----19----19-19-|Heavy
|----------------------------------------------------|
|-17----17----17----17----17----17----17----17-------|
|----------------------------------------------------|

|-----------------------------------------------------------|
|-----------------------------------------------------------|
|----20-----20----20----20----18----18----18----18----18-18-|Heavy
|-----------------------------------------------------------|
|-18-----18----18----18----16----16----16----16----16-------|
|-----------------------------------------------------------|

Chorus Part A

Chorus Part B (Heavy)

Chorus Part C

Verse Part A (4x)

Interlude Part A (1x)
|--------------------------------------|
|--------------------------------------|
|-14-12-15-14-12/14--12-12/14-10-10-10-|
|--x--x--x--x--x/-x---x--x/-x--x--x--x-|Light
|-12-10-13-12-10/12--10-10/12--8--8--8-|
|--------------------------------------|

Interlude Part B (1x)
|--------------------------------|
|--------------------------------|
|-14-12-15-14-12/14--12-12/14-10-|Light
|--x--x--x--x--x/-x---x--x/-x--x-|
|-12-10-13-12-10/12--10-10/12--8-|
|--------------------------------|
Komentari
Još nema komentara