System Of A Down

Prison Song

by: Guitar360

Pronađi akord!

Ne znaš kako odsvirati neki od akorda pjesmi Prison Song? Upiši akord u tražilicu i saznaj!

Traženi akord će se prikazati ovdje

Od istog izvođača

Pregledano 1063 puta
Pregledano 3331 puta
Pregledano 1976 puta
Pregledano 9249 puta
Pregledano 1313 puta
Trebaš ritam za ovu pjesmu? Pronađi ga ovdje
Akordi/Tabovi:
System of a Down - Prison song

hey this is straight from the tab book so-no mistakes
tunning: (low to high)c-g-c-f-a-d

here is the intro:(all of intro and chorus is p.m.)

|---------------------------------------------------------|
|---------------------------------------------------------|
|---------------------------------------------------------|
|-------------------------------------------------3-3-3-3-|
|--0--1--3--1---0--1--3--1---0--1--3--1---0--1----1-1-1-1-|
|--0--1--3--1---0--1--3--1---0--1--3--1---0--1------------|
repeat 2

|---------------------------------------------------------|
|---------------------------------------------------------|
|---------------------------------------------------------|
|---------------------------------------------------------|
|--0--1--3--1---0--1--3--1---0--1--3--1---0--1------------|
|--0--1--3--1---0--1--3--1---0--1--3--1---0--1------------|

|-----------|
|-----------|
|-----------|
|--3-3-3-3--|
|--1-1-1-1--|
|-----------|

here is the chorus:

|---------------------------------------------------------|
|---------------------------------------------------------|
|---------------------------------------------------------|
|---------------------------------------------------------|
|--0-1-0-1-0-1-0---0-1-0-1-0-1-0---0-1-0-1-0-1-0---0-1----|
|--0-1-0-1-0-1-0---0-1-0-1-0-1-0---0-1-0-1-0-1-0---0-1-0--|

|-----------|
|-----------|
|-----------|
|--3-3-3-3--|
|--1-1-1-1--|
|-----------|

repeat 2

|---------------------------------------------------------|
|---------------------------------------------------------|
|---------------------------------------------------------|
|---------------------------------------------------------|
|--0-1-0-1-0-1-0---0-1-0-1-0-1-0---0-1-0-1-0-1-0---0-1----|
|--0-1-0-1-0-1-0---0-1-0-1-0-1-0---0-1-0-1-0-1-0---0-1----|

|-----------|
|-----------|
|-----------|
|--3-3-3-3--|
|--1-1-1-1--|
|-----------|


here is the verse: (slight p.m.)

|---------------------------------------------------------|
|---------------------------------------------------------|
|---------------------------------------------------------|
|------8----------------8----------------8----------------|
|--6-------6--------6-------6--------6-------6------------|
|---------------------------------------------------------|

repeat 2

|---------------------------------------------------------|
|---------------------------------------------------------|
|---------------------------------------------------------|
|------8----------------8----------------8----------------|
|--6-------6--------6-------6--------6-------6------------|
|---------------------------------------------------------|

(there trying to build a prison)
(p.m.)
|---------------------------------------------------------|
|---------------------------------------------------------|
|---------------------------------------------------------|
|----8---8---8--------------------------------------------|
|-6----6---6---6------------------------------------------|
|---------------------------------------------------------|



here is the chorus, again:

|---------------------------------------------------------|
|---------------------------------------------------------|
|---------------------------------------------------------|
|---------------------------------------------------------|
|--0-1-0-1-0-1-0---0-1-0-1-0-1-0---0-1-0-1-0-1-0---0-1----|
|--0-1-0-1-0-1-0---0-1-0-1-0-1-0---0-1-0-1-0-1-0---0-1-0--|

|-----------|
|-----------|
|-----------|
|--3-3-3-3--|
|--1-1-1-1--|
|-----------|

repeat 2

|---------------------------------------------------------|
|---------------------------------------------------------|
|---------------------------------------------------------|
|---------------------------------------------------------|
|--0-1-0-1-0-1-0---0-1-0-1-0-1-0---0-1-0-1-0-1-0---0-1----|
|--0-1-0-1-0-1-0---0-1-0-1-0-1-0---0-1-0-1-0-1-0---0-1----|

|-----------|
|-----------|
|-----------|
|--3-3-3-3--|
|--1-1-1-1--|
|-----------|

here is the verse, again: (slight p.m.)

|---------------------------------------------------------|
|---------------------------------------------------------|
|---------------------------------------------------------|
|------8----------------8----------------8----------------|
|--6-------6--------6-------6--------6-------6------------|
|---------------------------------------------------------|

repeat 2

|---------------------------------------------------------|
|---------------------------------------------------------|
|---------------------------------------------------------|
|------8----------------8----------------8----------------|
|--6-------6--------6-------6--------6-------6------------|
|---------------------------------------------------------|

(there trying to build a prison)
(p.m.)
|---------------------------------------------------------|
|---------------------------------------------------------|
|---------------------------------------------------------|
|----8---8---8--------------------------------------------|
|-6----6---6---6------------------------------------------|
|---------------------------------------------------------|


here is the chorus, again:

|---------------------------------------------------------|
|---------------------------------------------------------|
|---------------------------------------------------------|
|---------------------------------------------------------|
|--0-1-0-1-0-1-0---0-1-0-1-0-1-0---0-1-0-1-0-1-0---0-1----|
|--0-1-0-1-0-1-0---0-1-0-1-0-1-0---0-1-0-1-0-1-0---0-1-0--|

|-----------|
|-----------|
|-----------|
|--3-3-3-3--|
|--1-1-1-1--|
|-----------|

repeat 2

|---------------------------------------------------------|
|---------------------------------------------------------|
|---------------------------------------------------------|
|---------------------------------------------------------|
|--0-1-0-1-0-1-0---0-1-0-1-0-1-0---0-1-0-1-0-1-0---0-1----|
|--0-1-0-1-0-1-0---0-1-0-1-0-1-0---0-1-0-1-0-1-0---0-1----|

|-----------|
|-----------|
|-----------|
|--3-3-3-3--|
|--1-1-1-1--|
|-----------|

here is the half time feel:
(uses to guitars at the same time fig. a is a electric,
  fig. b is a 12 string acoustic)

fig. a (let ring)
|---------------------------------------------------------|
|------3-------------------2------------------------------|
|----------3-------3-----------2--------------------------|
|--------------3-------------------2----------------------|
|----------------------0----------------------------------|
|---------------------------------------------------------|
fig. b (let ring)
|---------------------------------------------------------|
|------3--------------------------------------------------|
|--3-------3-------------------2--------------------------|
|--------------3-----------2-------2----------------------|
|------------------1---0----------------------------------|
|---------------------------------------------------------|

here is the interlude:
                                             <~~p.m.~~>
|---------------------------------------------------------|
|---------------------------------------------------------|
|---------------------------------------------------------|
|---------------------------------------------3-3-3-3-----|
|---------------------------------------------1-1-1-1-----|
|-0--0--0--0--0--0-0-0--0--0--0--0--0--0--0---------------|

repeat 2
(all p.m.)
|---------------------------------------------------------|
|---------------------------------------------------------|
|---------------------------------------------------------|
|-----------------------------------------------3-3-3-3---|
|--0--0------0--0--0------0--0--0------0--0--0--1-1-1-1---|
|--0--0------0--0--0------0--0--0------0--0--0------------|

repeat

here is the outro:

|---------------------------------------------------------|
|------3-------------------2------------------------------|
|----------3-------3-----------2--------------------------|
|--------------3-------------------2----------------------|
|----------------------0----------------------------------|
|---------------------------------------------------------|
Komentari
Još nema komentara