Bajaga

Ako treba da je kraj

by: Mita

Pronađi akord!

Ne znaš kako odsvirati neki od akorda pjesmi Ako treba da je kraj? Upiši akord u tražilicu i saznaj!

Traženi akord će se prikazati ovdje

Od istog izvođača

Pregledano 16694 puta
Pregledano 10304 puta
Pregledano 28570 puta
Pregledano 8995 puta
Pregledano 6539 puta
Trebaš ritam za ovu pjesmu? Pronađi ga ovdje
Akordi/Tabovi:
Bajaga i Instruktori - Ako treba da je kraj


F               C
Gde su oni dobri andjeli cuvari,
F               C
sto dolaze tiho da poprave stvari?
F               C
Ne vidim u mraku leptire i svice,
F               C               E
da ti sklone kosu i osvetle lice.


E               a
Ne vidm u mraku prst pred nosom,
E               a
jutro stize umiveno rosom,
E                  a           d         E
ne cuje se cak ni lepet krila, gluvi je sat.

Refren:

      a       d         C             E   
Ako treba da je kraj, neka se odmah desi,
      a       d         C             E
ako treba da je bol, skupi ga i ponesi.
      F         E           a/G/F
Ako treba da je zivot samo duboka tuga,
      a       d           C/a         E
ako ovo bude kraj znacu da nije ljubav.

Gde su oni dobri andjeli cuvari,
sto dolaze tiho da poprave stvari?
Ne vidim u mraku leptire i svice,
da ti sklone kosu i osvetle lice.

Ne vidm u mraku prst pred nosom,
jutro stize umiveno rosom,
ne cuje se cak ni lepet krila, gluvi je sat.

Refren:
Ako treba da je kraj, neka se odmah desi,
ako treba da je bol, skupi ga i ponesi.
Ako treba da je zivot samo duboka tuga,
ako ovo bude kraj znacu da nije ljubav.

Ne vidm u mraku prst pred nosom,
jutro stize umiveno rosom,
ne cuje se cak ni lepet krila, gluvi je sat.

Refren:
Ako treba da je kraj, neka se odmah desi,
ako treba da je bol, skupi ga i ponesi.
Ako treba da je zivot samo duboka tuga,
ako ovo bude kraj znacu da nije ljubav.

Ako treba da je kraj,
ako treba da je bol,
ako treba da je zivot samo duboka tuga,
ako ovo bude kraj znacu da nije ljubav.
Komentari

LoLa kaže:

Refren

29-11-2011 19:38

dimitrije24 kaže:

a kako ide pravilno ref??

30-11-2011 04:22

LoLa kaže:

Pravilno ide kad su točni akordi je li tako.

30-11-2011 08:31

LoLa kaže:

Nemoj pisati velikim slovima to je kao da se dereš na nekog.
Da si me možda lipo zamolija možda bi i napisa a ovako
Prošla su vrimena kad se reklo napiši sada su druga vrimena
i triba se zamoliti za neku uslugu.

30-11-2011 17:11

dimitrije24 kaže:

mrk

30-11-2011 20:26

nemanja.misic kaže:

Pravilno ide umesto Dm ide F, i:

a F C/E a
ako ovo bude kraj znacu da nije ljubav.


10-01-2012 18:41

petar_miha kaže:

Bio bih zahvalan ako neko skine uvodni solo :)

22-01-2012 22:04

Miroslav1391 kaže:

Mislim da ide nešto ovako:

Akordi/Tabovi:
E||-------------------------------------------------------------------|
B||-------------------------------------------------------------------|
G||--10-9-10-9-10/12-9h-9-7-5-5h--------------------------------------|
D||-------------------------------------------------------------------|
A||-------------------------------------------------------------------|
E||-------------------------------------------------------------------|

E||-------------------------------------------------------------------|
B||-------------------------------------------------------------------|
G||--10-9-10-9-10/12-9h-----------------------------------------------|
D||-------------------------------------------------------------------|
A||-------------------------------------------------------------------|
E||-------------------------------------------------------------------|

E||-------------------------------------------------------------------|
B||--------------------------10-8-10h--8------------------------------|
G||--10-9-10-9-10/12-9h-9-7---------------9/10-9-7-5h-----------------|
D||-------------------------------------------------------------------|
A||-------------------------------------------------------------------|
E||-------------------------------------------------------------------|


Da ga postavim kako valja. :-)

06-04-2012 12:13

slavkoni.rs kaže:

Bravo za Nemanju,dobra ispravka.

26-05-2012 00:53