Bajaga

Moji Su Drugovi /Verzija 3/

by:

Pronađi akord!

Ne znaš kako odsvirati neki od akorda pjesmi Moji Su Drugovi /Verzija 3/? Upiši akord u tražilicu i saznaj!

Traženi akord će se prikazati ovdje

Od istog izvođača

Pregledano 7849 puta
Pregledano 825 puta
Pregledano 273174 puta
Pregledano 23516 puta
Pregledano 5253 puta
Trebaš ritam za ovu pjesmu? Pronađi ga ovdje
Akordi/Tabovi:
Evo ljudi, videla sam jos jedne akorde, tacni su, ali da napisem full pesmu... =)


Am                 E
Moji su drugovi biseri rasuti
Am       
po celom svetu
C         
i ja sam selica
G              C
pa ih ponekad sretnem u letu

    F           
Da l' je to sudbina
    C
il' ko zna sta li je
    F           
kad god se sretnemo
    C
uvek se zalije
    E7
uvek se zavrsi
    Am
s' nekom od nasih pesama

Am
Moji su drugovi
E             Am
zestoki momci velikog srca
C              G
i kad se pije i kad se ljubi
C
i kad se puca

F               C
Gore od Aljaske do Australije
F               C
kad god se sretnemo uvek se zalije
E7
uvek se zavrsi
  Am
s' nekom od nasih pesama



Ref.

G
Da smo zivi i zdravi
C
jos godina sto
G
da je pesme i vina
C
i da nas cuva Bog


G
Da su najbolje zene
C
uvek pored nas
     E7
jer ovaj zivot je kratak
Am
i prozuji za cas



      G                   C    C      E7               Am
e-|-------3-----3--3-1-0---0-|--3--1-0--------------------|
B-|----3-----3-----------3---|---------3-1-0-1-3-0---0-1--|
G-|--------------------------|---------------------2-----2|
D-|--------------------------|----------------------------|
A-|--------------------------|----------------------------|
E-|--------------------------|----------------------------|




Am
Za moje drugove
E                Am
ja molim vetrove za puna jedra
C              G
puteve sigurne, a noci zvezdane
C
i jutra vedra

    F           
Da l' je to sudbina
    C
il' ko zna sta li je
    F           
kad god se sretnemo
    C
uvek se zalije
    E7
uvek se zavrsi
    Am
s' nekom od nasih pesama

Ref. 2x

       G                   C    C      E7               Am
e-|-------3-----3--3-1-0---0-|--3--1-0--------------------|
B-|----3-----3-----------3---|---------3-1-0-1-3-0---0-1--|
G-|--------------------------|---------------------2-----2|
D-|--------------------------|----------------------------|
A-|--------------------------|----------------------------|
E-|--------------------------|----------------------------|


Eto, to je to, ako neko ima zamerki, neka ostavi u komentarima... =)
Komentari

EyeShineeee kaže:

Eyeshine kaze super _bandana

26-09-2013 03:25