ZADNJE NA FORUMU
  • Relax don do it...

    Komentirao: Ad_slammer

    Datum: 17-07 09:47

    Odgovora: 4557

    Pogleda: 653135

  • Koje gitare imate - 2018

    Komentirao: aldindubo

    Datum: 16-07 19:03

    Odgovora: 270

    Pogleda: 16862

  • Akordi i...

    Komentirao: truli45

    Datum: 15-07 14:44

    Odgovora: 1

    Pogleda: 115

  • Pomoc. Promjena tonaliteta

    Komentirao: truli45

    Datum: 15-07 14:37

    Odgovora: 2

    Pogleda: 264

  • Divojka sa juga Bas

    Komentirao: Taco13

    Datum: 14-07 13:30

    Odgovora: 0

    Pogleda: 19

  • Gitare.Info & MRI - 03 - Osnovni akordi: C,G,D,A,E

    • Datum:   20-10-2011 19:23
    • Autor:  
    • Ispiši   Stranicu


    C dur
    Akordi/Tabovi:
    e|-----------0------------|-----------0------|
    B|-----------1------------|---------1--------|
    G|-----------0------------|-------0----------|
    D|-----------2------------|-----2------------|
    A|-----------3------------|---3--------------|
    E|------------------------|------------------|


    G dur
    Akordi/Tabovi:
    e|-----------3------------|------------3-----|
    B|-----------0------------|------------------|
    G|-----------0------------|---------0--------|
    D|-----------0------------|-------0----------|
    A|-----------2------------|-----2------------|
    E|-----------3------------|---3--------------|


    D dur
    Akordi/Tabovi:
    e|-----------2------------|-------------2----|
    B|-----------3------------|-----------3------|
    G|-----------2------------|---------2--------|
    D|-----------0------------|-------0----------|
    A|------------------------|------------------|
    E|------------------------|------------------|


    A dur
    Akordi/Tabovi:
    e|-----------0------------|-------------0----|
    B|-----------2------------|-----------2------|
    G|-----------2------------|---------2--------|
    D|-----------2------------|-------2----------|
    A|-----------0------------|-----0------------|
    E|------------------------|------------------|


    E dur
    Akordi/Tabovi:
    e|------------------------|------------------|
    B|-----------0------------|-----------0------|
    G|-----------1------------|---------1--------|
    D|-----------2------------|-------2----------|
    A|-----------2------------|-----2------------|
    E|------------------------|------------------|

    Slični tekstovi

    » 3 komentara... Dodaj svoj!

    Silentstar kaže:

    Ajde,pomaze ovaj video,cak sam naucila C-dur ;))) Hahahha,sad idem na G-dur

    21-12-2011 21:07

    Silentstar kaže:

    AA zakon,naucila sam manje-vise sve od ovog

    21-12-2011 21:28

    GoFgO kaže:

    Bravo :) Samo polako. Nauci tih par osnovnih i onda se baci na neke lagane pjesme da vjezbas mjenjanje sa akorda na akord i to je to :)

    Tipa, knockin on heavens door,johny cash hurt,house of the rising sun ili jos neke mozda i lakse :)

    21-12-2011 22:43