System Of A Down

Lonely day

by: Guitar360

Pronađi akord!

Ne znaš kako odsvirati neki od akorda pjesmi Lonely day? Upiši akord u tražilicu i saznaj!

Traženi akord će se prikazati ovdje

Od istog izvođača

Pregledano 969 puta
Pregledano 1030 puta
Pregledano 1294 puta
Pregledano 1314 puta
Pregledano 1875 puta
Trebaš ritam za ovu pjesmu? Pronađi ga ovdje
Akordi/Tabovi:
System of a Down - Lonely day

Tuning = drop Db   C# g# c# f# a# d#

D#|-------------------------------------------------------------------------|
A#|------1-----------0------------1------------0----------------------------|
F#|----2---2-------2---2--------0---0--------1---1--------------------------|
C#|--2-------0---2-------2----2-------2----0-------0------------------------|
G#|0------------------------3-----------------------------------------------|
C#|------------3-------------------------2----------------------------------|


D#|-------------------------------------------------------------------------|
A#|-------------------------------------------------------------------------|
F#|-2--2-2-2--------------5--5-5-5------------------------------------------|
C#|-2--2-2-2---3--3-3-3---5--5-5-5---2--2-2-2-------------------------------|
G#|-0--0-0-0---3--3-3-3---3--3-3-3---2--2-2-2-------------------------------|
C#|------------3--3-3-3--------------2--2-2-2-------------------------------|


D#|-------------------------------------------------------------------------|
A#|------1-----------0------------1------------0----------------------------|
F#|----2---2-------2---2--------0---0--------1---1--------------------------|
C#|--2-------0---2-------2----2-------2----0-------0------------------------|
G#|0------------------------3-----------------------------------------------|
C#|------------3-------------------------2----------------------------------|


D#|--12----12--------------17-17-16v----------------------------------------|
A#|-----13----13-13/15------------------------------------------------------|
F#|-------------------------------------------------------------------------|
C#|-------------------------------------------------------------------------|
G#|-------------------------------------------------------------------------|
C#|-------------------------------------------------------------------------|


D#|-------------------------------------------------------------------------|
A#|-------------------------------------------------------------------------|
F#|-------------------------------------------------------------------------|
C#|-3--3-3-3---2--2-2-2---5--5-5-5---7--7-7-7-----x2------------------------|
G#|-3--3-3-3---2--2-2-2---5--5-5-5---7--7-7-7-------------------------------|
C#|-3--3-3-3---2--2-2-2---5--5-5-5---7--7-7-7-------------------------------|


D#|--------------------12---12-10-8--7--8--7----8--7---10-------------------|
A#|--------------------13---13-12-10-8--10-8----10-8-9-12-------------------|
F#|--------------------------------------------------9----------------------|
C#|3-x12--2-x12-------------------------------------------------------------|
G#|3------2-----------------------------------------------------------------|
C#|3------2-----------------------------------------------------------------|
  .pm    .pm

D#|-----------10------------12------------13------------15------------------|
A#|--13\12/13-12---13\12/13-13---13\12/13-15---13\12/13-17------------------|
F#|--14\13/14------14\13/14------14\13/14------14\13/14---------------------|
C#|-------------------------------------------------------------------------|
G#|-------------------------------------------------------------------------|
C#|-------------------------------------------------------------------------|


D#|--17-15-13-15-13-12-13-12-10-12-10-8-------------19--| improvizacija
A#|--18-17-15-17-15-13-15-13-12-13-12-10--10v-------20--|
F#|-----------------------------------------------------|
C#|-----------------------------------------------------|
G#|-----------------------------------------------------|
C#|-----------------------------------------------------|


D#|-------------------------------------------------------------------------|
A#|-------------------------------------------------------------------------|
F#|-2--2-2-2--------------5--5-5-5------------------------------------------|
C#|-2--2-2-2---3--3-3-3---5--5-5-5---2--2-2-2-------------------------------|
G#|-0--0-0-0---3--3-3-3---3--3-3-3---2--2-2-2-------------------------------|
C#|------------3--3-3-3--------------2--2-2-2-------------------------------|


D#|-------------------------------------------------------------------------|
A#|------1-----------0------------1------------0----------------------------|
F#|----2---2-------2---2--------0---0--------1---1--------------------------|
C#|--2-------0---2-------2----2-------2----0-------0------------------------|
G#|0------------------------3-----------------------------------------------|
C#|------------3-------------------------2----------------------------------|


D#|-------------------------------------------------------------------------|
A#|-------------10----------------------------------------------------------|
F#|---10--9-----------------------------------------------------------------|
C#|-------------------------------------------------------------------------|
G#|-----7---7---------------------------------------------------------------|
C#|-------------------------------------------------------------------------|

Solo:
e|--12------12---10---8-----7-----10---7---------10--------------------|
B|--13------13---12---10---8------8----8---9----12---------------------|
G|-------------------------------------------------9-------------------|
D|---------------------------------------------------------------------|
A|-----------------------------------------------------------------------------|
E|-----------------------------------------------------------------------------|

e|---------------10---------------12---------------13---------------15---------|
B|--13-12-13------13-12-13-----13-12-13------13-12-13--------------------------|
G|-----------------------------------------------------------------------------|
D|-----------------------------------------------------------------------------|
A|-----------------------------------------------------------------------------|
E|-----------------------------------------------------------------------------|

e|-17--15--13--15--13--12--13--12--10--12--10--9--9----------------------------|
B|-----------------------------------------------------------------------------|
G|-----------------------------------------------------------------------------|
D|-----------------------------------------------------------------------------|
A|-----------------------------------------------------------------------------|
E|-----------------------------------------------------------------------------|

e|-9-/-19191919191919--(playreallyfast)--------------------------------------|
B|-----------------------------------------------------------------------------|
G|-----------------------------------------------------------------------------|
D|-----------------------------------------------------------------------------|
A|-----------------------------------------------------------------------------|
E|-----------------------------------------------------------------------------|

e|-19-17-16-17-16-14-16-14-----14----------------------------------------------|
B|-------------------------------------17----17-15-17-15-----15----------------|
G|--------------------------------------------------------------17-----17------|
D|-----------------------------------------------------------------------------|
A|-----------------------------------------------------------------------------|
E|-----------------------------------------------------------------------------|

e|-----------------------------------------------------------------------------|
B|----------------------------------------15------------------15---------------|
G|-16-17-16-14--16-14-141617----1716141617----1716-----------------------------|
D|-----------------------------------------------------------------------------|
A|-----------------------------------------------------------------------------|
E|-----------------------------------------------------------------------------|

e|-----------------------------------------------------------------------------|
B|------------15------------------15------------------15-----------------------|
D|-141617----1716141617----1716141617----171614--------------------------------|
A|-----------------------------------------------------------------------------|
E|------------------------(reapeat til the end on the )--------------------|
Komentari

Rock Girl kaže:

obozavam ovu pjesmu, a posto sam pocetnik ovo fakat puno pomaze! :D

08-03-2009 19:16

Andrea kaže:

je ova pjesma je super....tako sam i počeo slušati SOD.

08-03-2009 20:10

Zvonx__S.O.A.D. kaže:

"""je ova pjesma je super....tako sam i počeo slušati SOD. """
nije SOD nego SOAD

31-10-2009 15:16

fatjuice kaže:

ako cemo ispravljat.. onda je "buduci da sa pocetnij" a ne posto =P

29-05-2010 21:16