Hladno Pivo

Kirbaj i Kotlovina (CIJELA PJESMA!)

by: Renato Mikulan

Pronađi akord!

Ne znaš kako odsvirati neki od akorda pjesmi Kirbaj i Kotlovina (CIJELA PJESMA!)? Upiši akord u tražilicu i saznaj!

Traženi akord će se prikazati ovdje

Od istog izvođača

Pregledano 9473 puta
Pregledano 9475 puta
Pregledano 5468 puta
Pregledano 22641 puta
Pregledano 16413 puta
Trebaš ritam za ovu pjesmu? Pronađi ga ovdje
Akordi/Tabovi:
Tabovi od: Renato Mikulan   

[b]UVOD[/b]
e|----------------------------------------------------------|
B|----------------------------------------------------------|
G|----7---7---7-----8---8---8-----12-10-8--7---10--8-7-5----| x2
D|------8---8---8-----8---8---8---13-12-10-8----8-10-8-7----|
A|----------------------------------------------------------|
E|----------------------------------------------------------|

[b]RIFF 1[/b]
e|-------------------------------------|
B|-------------------------------------|
G|--7-7--7---8-8--8---7-7--7---5-5--5--|
D|--8-8--8---8-8--8---8-8--8---7-7--7--|
A|-------------------------------------|
E|-------------------------------------|

[b]RIFF 2[/b]
e|---------------------------------------------------------|
B|---------------------------------------------------------|
G|--7-7-7-7---8-8-8-8---8-7-7-7-7-7-7-5-5-5---3-5----------|             
D|---------------------------------------------------------|             
A|---------------------------------------------------------|
E|---------------------------------------------------------|

[b]RIFF 3 (SLIČAN RIFFU 2, SAMO S MALIM DODACIMA. ZNAČI SVIRA SE JEDANPUT RIFF 2, I ODMAH SE PRELAZI NA RIFF 3[/b]
e|---------------------------------------------------------|
B|---------------------------------------------------------|
G|--7-7-7-7-5-7-8-8-8-8--8-8-8-7-7-7-7-7-7-5-5-5---3-5-----| x4           
D|---------------------------------------------------------|             
A|---------------------------------------------------------|
E|---------------------------------------------------------|

[b]RIFF 4[/b]
e|-----------------------------------------------------------------------|
B|-----------------------------------------------------------------------|
G|-----------------------------------------------------------------------|         
D|---------------------------------------------------0-2-0---------------|   x2       
A|--0-0-0-0-0-2-4-2--0-0-0-0-0-2-4-2--0-0-0-0-0-2-4-2-----4-2-4-2-0------|
E|-----------------------------------------------------------------------|

[b]RIFF 5[/b]
e|--------------------------------------------------------------------------|
B|--------------------------------------------------------------------------|
G|--------------6-----------------6-----------------6---**7-9-7-6--6--------|         
D|--7-7-7-7-7-9---9---7-7-7-7-7-9---9---7-7-7-7-7-9---9-----------9--9-7----|   x2 [b](**ide samo 1. put**)[/b]
A|--------------------------------------------------------------------------|
E|--------------------------------------------------------------------------|

[b]RIFF 6[/b]
e|-------------------------------------------------------------------|
B|-------------------------------------------------------------------|
G|--9-9-9-9-9-7-9-10-10-10-10--10-10-10-9-9-9-9-9-9-7-7-7---5-7------| x2         
D|-------------------------------------------------------------------|             
A|-------------------------------------------------------------------|
E|-------------------------------------------------------------------|

[b]RIFF 7 (SLIČAN RIFFU 6, NADOPUNJEN. SVIRA SE ODMAH NAKON RIFFA6, POČETKOM TEKSTA. (Pa mi leži na ruci..) [/b]
e|------------------------------------------------------------|
B|------------------------------------------------------------|
G|--9-9-9-9-9-7-9-10-10-10-10---14-12-12-12-12-12-12-10~~12-9-|  x4   
D|------------------------------------------------------------|             
A|------------------------------------------------------------|
E|------------------------------------------------------------|

[b]RIFF 8[/b]
e|---------------------------------------|
B|---------------------------------------|
G|---------------------------------------|         
D|--9-9-9-9-9-10-12-10-------------------|    x2     
A|--7-7-7-7-7- 8-10-8--------------------|
E|---------------------------------------|


[b]RIFF 1[/b]
Načelnik općine, odriješio kesu za veliku feštu u malom mjestu,
kraj zvonika, velika bina večeras Hladno pivo, sutra Severina.
Uuuuuuu Severina, uuuuuuu kotlovina. [b]kraj RIFF1[/b]

[b]RIFF 2[/b]
[b]RIFF 3[/b]

[b][u]DISTORZIJA[/u][/b] :punk
G5                   D#5          D5                 C5      C5~D5 (SLIDE)
Skockane majke psuju pijane tate, klinci u oblaku od šećerne vate,
G5                D#5        D5 C5 D5 C5 A#5
i sve me te slike začas vrate,
G5       D#5        D5         C5   D5 C5 A#5
do prištavog čudaka kategorije pero-laka,
G5              D#5          D5          C5  D5  C5
što u zagrljaju rodnog kraja, nikad nije imo' zraka.

G5       D#5    D5 C5 D5 A#5  G5          D#5     D5 C5 D5 A#5
Kirbaj i kotlovina,           dobro došla pripizdina,
G5       D#5    D5 C5 D5 A#5  G5          D#5     D5 C5 D5 A#5
kirbaj i kotlovina,           dobro došla pripizdina.

[b]RIFF 4[/b]
[b]RIFF 5(KAD POČNE TEKST)[/b]
Tu se nosom zastor gura, tu se virka iza plota,
jel mu to žena il' cura, fino se živi od nota.
Vidi kakva kola vozi, malo se pravi važan,
što mu je to na nozi, nije valjda tetovaža (nije valjda tetovaža).

[b]RIFF 6[/b]
[b]RIFF 7[/b]
Pa mi leži na ruci, ja joj milujem grudi,
pijetao svećano, najavljuje zoru,
kažem gradić po mjeri za život mirni,
veli mile ne seri, nisi na bini.

A5       E#5    E5  D5 E5 D5 C5 A5           E#5     E5  D5 E5 D5 C5 A5       
Kirbaj i kotlovina,              dobro došla pripizdina,
A5       E#5   [b]RIFF 8[/b]            A5           E#5     E5  D5 E5 D5 C5 A5
kirbaj i kotlovina,                      dobro došla pripizdina.

:punk I za kraj, samo da kažem da nisam u potpunosti siguran za RIFF 7. Nekako sam improvizirao. Ako ga netko otkrije u potpunosti, molio bih ga da barem napiše u komentar. Hvala! :thumbup
Komentari

Tommyb kaže:

predobra stvar...:D _bandana

07-01-2012 16:00

gitara97 kaže:

svaka nota je tu svaka cast

08-02-2012 22:21

richso kaže:

sve odlicno samo riff 2 i 3 i riff 6 i 7 isto samo oktave radi, ti si stavio samo oktavo znaci tamo di je na G zici 7 tamo na A zici 5 i tako za sve

28-03-2013 18:44

richso kaže:

sve odlicno samo riff 2 i 3 i riff 6 i 7 isto samo oktave radi, ti si stavio samo oktavo znaci tamo di je na G zici 7 tamo na A zici 5 i tako za sve

28-03-2013 18:44