Hladno Pivo

Kirbaj i Kotlovina

by: CroPsychooo

Pronađi akord!

Ne znaš kako odsvirati neki od akorda pjesmi Kirbaj i Kotlovina? Upiši akord u tražilicu i saznaj!

Traženi akord će se prikazati ovdje

Od istog izvođača

Pregledano 3687 puta
Pregledano 27054 puta
Pregledano 9751 puta
Pregledano 30782 puta
Pregledano 3124 puta
Trebaš ritam za ovu pjesmu? Pronađi ga ovdje
Pozdrav!

Eto odlucio sam napisati tabove za ovu pjesmu jer mi se cinila tako jednostavnom sto se tice uvoda i akorda poslje uvoda...
Pocetnik sam totalni u ovome prvi mi je put da sam ikakve tabove napisao, a i sumnjam da mi je SVE tako tocno iako sam u svoj sluh jednostavno siguran barem 90%...
Vjerujete mi bit cete zadovoljni sa ovim tabovima jedino sto nemam ostatak pjesme :(
Ali kad tad cu se potrudit i to poslusat pa stavit :)




Akordi/Tabovi:
Uvod:


E ||--------------------------------------------------------------------------||
h ||--------------------------------------------------------------------------||
G ||---------7---7---7------8----8----8---------14-12-10-9----12-10-9--7------||
D ||-----------8---8---8------8----8---8------- 15-14-12-10---14-12-10-9------||
A ||--------------------------------------------------------------------------||
E ||--------------------------------------------------------------------------|| 2x


akordi:

E ||----------------------------------------||
h ||----------------------------------------||
G ||------7-7-7---8-8-8---7-7-7---5-5-5-----||
D ||------7-7-7---8-8-8---7-7-7---5-5-5-----||
A ||------5-5-5---6-6-6---5-5-5---3-3-3-----||
E ||----------------------------------------||



i sad onaj dio prije pjevanja:

E ||------------------------------------------||
h ||------------------------------------------||
G ||------777777-\6/-888888-\777777-\555555---||
D ||------777777-\6/-888888-\777777-\555555---||
A ||------555555-\4/-666666-\555555-\333333---||
E ||------------------------------------------||
                  |                 
                  |__Prvi put je bez ovog prvog slide-a...



Za dalje se ispricavam jednostavno moram jos malo poslusat pjesmu da bi dokucio ostatak... :/

lp,
Marko...
Komentari

rmikulan7 kaže:

nije ti baš točan uvod.. nije 14/15 nego 12/13. znači, sve je smanjeno za 2.

17-09-2011 13:12

CroPsychooo kaže:

mislis ?
a kad nemrem taj uvod isto shvatiti sa tim dvoglasnim djelom :/
probat cu tak odsvirat...

A ovo ostalo ?

18-09-2011 13:05

rmikulan7 kaže:

imam ti ja svu pjesmu obrađenu. stavit ću je pa će ti biti jasno :D
moram još samlo pregledati i ispraviti ukoliko bude potrebno.

19-09-2011 21:00