Led Zeppelin

No Quarter

by: Svizac

Pronađi akord!

Ne znaš kako odsvirati neki od akorda pjesmi No Quarter? Upiši akord u tražilicu i saznaj!

Traženi akord će se prikazati ovdje

Od istog izvođača

Pregledano 1909 puta
Pregledano 6421 puta
Pregledano 1498 puta
Pregledano 1721 puta
Pregledano 1805 puta
Trebaš ritam za ovu pjesmu? Pronađi ga ovdje
Akordi/Tabovi:
e--------------------------------------------------------------------
b--4----------------9------------------------------------------------
g--6---------------11------------------------------------------------
d--7---------------12------------------------------------------------
a--7---------------12------------------------------------------------
E--------------------------------------------------------------------

And the chorus part has some heavy fuzz on the guitar:
(The last bend is for the end of the chorus)
e--------------------------------------------------------------------
b--------------------------------------------------------------------
g--------------------------------------------------------------------
d-----6-6-6------6-6-6------6------------------------2---------------
a-2/4-4-4-4--2/4-4-4-4--2/4-4-4-----4-4-4-2------2-----4----2^4------
E-------------------------------0/2-2-2-2-0--0-4---4-----------------

The solo has two guitars on it, one clean, and one with fuzz.
Just listen to the song to try to match up parts.
Here is the clean guitar solo:
e--------------------------------------------------------------------
b--------------------------------------------------------------------
g--------------------------4-6/8-6-4-6/8-6\4-6----------------8-11p8-
d-9p6---9p6---6p4--------6---------------------------9-8----9--------
a-----9-----7-----7--4-7---------------------------------11----------
E--------------------------------------------------------------------

e--------------------------------------------------------------------
b--------------------------------------------------------------------
g--11p8---8-11p8-11p8---8--------------------------------------------
d-------9-------------9---9-8----8-9---8-----------------------------
a-----------------------------11----------11-11-11-------------------
E--------------------------------------------------------------------

e--------------------------------------------14p11----14p11----------
b-------------------------------------11-12--------12-------12-16p12-
g-----------9---------9-11-11---11h13--------------------------------
d----8-9-11---11p9-11------------------------------------------------
a-11-----------------------------------------------------------------
E--------------------------------------------------------------------

e--------------------------------------------------------------------
b--11-12p11----11--------------------9-------------------------------
g-----------13----13-11-9----9-11-12--------12-11-9-8--9p8----8-9p8--
d--------------------------11------------------------------11--------
a--------------------------------------------------------------------
E--------------------------------------------------------------------

e--------------------------------------------------------------------
b--------------------------------------------------------------------
g----9--------------------------------------------4---6---8-----8----
d-11---11-9---9-11------9--------------------------------------------
a-----------11---------------7-6----6-7-6---------2---4---6-----6----
E---------------------------------9-------9--------------------------

e--------------------------------------------------------------------
b--------------------------------------------------------------------
g-11--13----13\12--13\12---13\12--12/13------------------------------
d----------------------------------------9---------------------------
a--9--11----11\10--11\10---11\10--10/11------------------------------
E--------------------------------------------------------------------

Here's the solo parts for the fuzzed guitar.

e--------------------------------------------------------------------
b--------------------------------------------------------------------
g-------6/8-6p4-6---------------------------------9-11-9-8-----------
d-----6------------------------------9-8-------------------11--------
a-6-7------------------------------------11-11-11--------------------
E--------------------------------------------------------------------

(This is during the octave part)
e-------------------------------------------------11-11h12p11-11-12--
b-9-11--11^12---12p11-12p11-12p11^12---14^16-------------------------
g--------------------------------------------------------------------
d--------------------------------------------------------------------
a--------------------------------------------------------------------
E--------------------------------------------------------------------

e-11h12p11---------------------------------------------------16------
b-----------14-12--11h12p11----11-12-14-16^17^16-14-16-16^17---------
g---------------------------13---------------------------------------
d--------------------------------------------------------------------
a--------------------------------------------------------------------
E--------------------------------------------------------------------

e--------------------------------------------------------------------
b-16^17--16-14-16-14--12^14^12----11-12-11----11-12-11-12------------
g------------------------------------------13-------------13-11--11--
d--------------------------------------------------------------------
a--------------------------------------------------------------------
E--------------------------------------------------------------------

e--------------------------------------------------------------------
b--------------------------------------------------------------------
g--13^15-----11-9----9-8---8h9p8-------------------------------------
d-----------------11-----9--------11---------------------------------
a--------------------------------------------------------------------
E--------------------------------------------------------------------
Komentari
Još nema komentara