Led Zeppelin

Tangerine

by: Svizac

Pronađi akord!

Ne znaš kako odsvirati neki od akorda pjesmi Tangerine? Upiši akord u tražilicu i saznaj!

Traženi akord će se prikazati ovdje

Od istog izvođača

Pregledano 1654 puta
Pregledano 4396 puta
Pregledano 2540 puta
Pregledano 1281 puta
Pregledano 1715 puta
Trebaš ritam za ovu pjesmu? Pronađi ga ovdje
Akordi/Tabovi:
  1       2       3       4         1       2       3       4
  Am  Am4 Am  Am2 G       G   D     D
E-0---0---0---0---3-------3---2---|-2-------2-------2---2---2-2-----|
B-1---3---1---0---0-------0---3---|-3-------3---3---3---3---3-3-----|
G-2---2---2---2---0-------0---2---|-2-------2-------2---2---2-2-----|
D-2---2---2---2---0-------0---0---|-0-------0-------0---0---0-0-----|
A-0---0---0---0---2-------2---0---|-#-------#-------#---------------|
E-#---#---#---#---3-------3---#---|-#-------#-------#---------------|

  1       2       3       4         1       2       3       4
  Am  Am4 Am  Am2 G       G   D     D           C   C
E-0---0---0---0---3-------3---2---|-2-------2---0---0-------0---0---|
B-1---3---1---0---0-------0---3---|-3-------3---1---1-------1---1---|
G-2---2---2---2---0-------0---2---|-2-------2---0---0-------0---0---|
D-2---2---2---2---0-------0---0---|-0-------0-------2-------2-------|
A-0---0---0---0---2-------2---0---|-#-------#-------3-------3-------|
E-#---#---#---#---3-------3---#---|-#-------#-------#-------#-------|

  1       2       3       4         1       2       3       4
[picking]                Am    Am  Am    G G     D D       D
E-------------------------0-----0-|-0-----3-3-----2-2-------2--2--2-|
B-------------------------1-----1-|-1-----0-0-----3-3-------3--3--3-|
G-----0-------0-----------2-----2-|-2-----0-0-----2-2-------2--2--2-|
D---2-------0-------------2-----2-|-2-----0-0-----0-0-------0--0--0-|
A-3-----3-2-----2-0-------0-----0-|-0-----2-2-----#-#-------0--0--0-|
E-------------------------#-----#-|-#-----3-3-----#-#-------#--#--#-|

  1       2       3       4
  D4  D       D2  D
E-3---2-------0---2---------------|
B-3---3-------3---3---------------|
G-2---2-------2---2---------------|
D-0---0-------0---0---------------|
A-#---#-------#---#---------------|
E-#---#-------#---#---------------|


Repeated thru Verse 1:
---------------------
Am    Am4   Am  Am2 G     G D  D    D .. D .. D
Mea - sur - ing  a  sum - mers day

Am   Am4 Am   Am2 G   G  D    D   C   C    .. C
On - ly  find it  slips  aw - ay, to  grey

[picking]  Am   Am  Am     G    G     D  D      D D4 D D2 D
.............. The hours, they bring me pain


Chorus:
------
C D G  G          C
       Tangerine, tangerine

  D G  G                 C
       Living reflection from a dream

  D G  G               C
       I was her love, she was my queen

  D G  G         G              G       D
       And now a thousand years between


Verse 2:
-------
Am    Am4   Am  Am2 G     G D  D    D .. D .. D
Think-ing   how it  use - d to be

Am   Am4 Am    Am2  G  G  D    D     C    C     .. C
Does she still re - mem - ber  times like these

[picking]  Am   Am  Am     G   G     D   D      D D4 D D2 D
.............. To  think  of  us    a - gain


And I do..



Solo:
----
Played w/ a very fuzzy guitar! I've left in chords to assist with
accompanying guitar.

Notes: 1/3    1 played, bent up to 3
       3/1    3 played while bent, and returned to 1
       1/3\1  1 played, bent up to 3 and then returned to 1
       1h3    1 played then hammer-on 3
       3p1    3 played then pull-off to 1
       1s3    1 played then slide to 3


  Am                                C
E---------------------------------|-8---------------10---10/12\10---|
B-10------------------------------|---------------------------------|
G---------------------------------|---------------------------------|
D---------------------------------|---------------------------------|
A---------------------------------|---------------------------------|
E---------------------------------|---------------------------------|

  D                                 F
E-10-------------------------8p7--|-8------------------------10-----|
B---------------------------------|---------------------------------|
G---------------------------------|---------------------------------|
D---------------------------------|---------------------------------|
A---------------------------------|---------------------------------|
E---------------------------------|---------------------------------|

  E               F         E       E       E       F
E-7---------7-7---8--10-----6/7s5-|-7----------7-7--8----10---------|
B---------------------------------|---------------------------------|
G---------------------------------|---------------------------------|
D---------------------------------|---------------------------------|
A---------------------------------|---------------------------------|
E---------------------------------|---------------------------------|

  C               G                 D
E-15/17--15------------18/19-18/19|-18/19\s17-17-18/19--19/20--19/20|
B---------------------------------|---------------------------------|
G---------------------------------|---------------------------------|
D---------------------------------|---------------------------------|
A---------------------------------|---------------------------------|
E---------------------------------|---------------------------------|

E-21/22---------------------------|
B---------------------------------|
G---------------------------------|
D---------------------------------|
A---------------------------------|
E---------------------------------|

[this was worked out using a twenty-fret acoustic, so it _may_ be incorrect.
feel free to modify to taste.]

Chorus repeated
------

Outro:
-----

strum..

D.... D.... D.... D.... D D4 D D2 D .. D D4 D D2 D  ad nauseum whatever - I
didn't count them

plus a couple of chords to finish..

Am  Am G G F F G
Komentari
Još nema komentara