Gibonni

Zedjam (tabs)

by: N1dza92

Pronađi akord!

Ne znaš kako odsvirati neki od akorda pjesmi Zedjam (tabs)? Upiši akord u tražilicu i saznaj!

Traženi akord će se prikazati ovdje

Od istog izvođača

Pregledano 92631 puta
Pregledano 6955 puta
Pregledano 19623 puta
Pregledano 12152 puta
Pregledano 20160 puta
Trebaš ritam za ovu pjesmu? Pronađi ga ovdje
Akordi/Tabovi:
Gibonni - Zedjam

Intro:

| -------------<12>----------------------------------------------------|
| ---------------------------------<7>---------------------------------|
| -----7--7-7------------5--5-5-------------------------------7--7-7-- |
| -----7--7-7------------5--5-5---------8--8--5-5/7-----------7--7-7---|
| -5----5---5---------3---3---3---------8--8--5------------5---5---5---|
| -----------------------------------6---6----3-3/5--------------------|

|- -----------------5------------------------8---------------------------------------X------|
|- 5h6-5-6p5--6p5h6---6p5---5h6-5-6p5--6p5h6---6h5---5h6-5-6p5—6p5h6-8-8/10----------X------|
|- ----------------------------------------------------------------------------7---7-X-7----|
|- ----------------------------------------------------------------------------7---7-X-7----|
|- --------------------------------------------------------------------------5---5---X-5----|
|- ----------------------------------------------------------------------------------X------|

Strofa: Dm, C, B, Gm-Am, Dm
Refren: Dm, Gm, Am, B, Gm-Am, Dm

Prelaz posle refrena:

| ---------------|
| ---------------|
| ------5--7-----|
| --5h7--7-------|
| ---------------|
| ---------------|
Komentari

N1dza92 kaže:

Evo taba za ovu pesmu, posto sam video da mnogima treba. Prijavite greske, ako ih pronadjete pa da ispravim...

17-08-2011 16:22