Led Zeppelin

Rock And Roll

by: Svizac

Pronađi akord!

Ne znaš kako odsvirati neki od akorda pjesmi Rock And Roll? Upiši akord u tražilicu i saznaj!

Traženi akord će se prikazati ovdje

Od istog izvođača

Pregledano 2539 puta
Pregledano 3026 puta
Pregledano 1389 puta
Pregledano 5723 puta
Pregledano 1978 puta
Trebaš ritam za ovu pjesmu? Pronađi ga ovdje
Akordi/Tabovi:
A riff
|------------------------|--------------------------|
|------------------------|--------------------------|
|------------------------|--------------------------|
|-2--2-----2--5^2--4-----|-----2--4--2--2--2--4--2--|
|-0--0--4--0--0----0--3'-|-(3)-0--0--0--0--0--0--0--|
|------------------------|--------------------------|


  D riff
|------------------------|--------------------------|
|------------------------|--------------------------|
|-2--2-----2--5^2--4-----|-----2--4--2--2--2--4--2--|
|-0--0--4--0--0----0--3'-|-(3)-0--0--0--0--0--0--0--|
|------------------------|--------------------------|
|------------------------|--------------------------|

  E riff
|---------------------------------------------------|
|------------------------|--------------------------|-
|------------------------|--------------------------|
|------------------------|--------------------------|
|-2--2-----2--5^2--4-----|-----2--4--2--2--2--4--2--|
|-0--0--4--0--0----0--3'-|-(3)-0--0--0--0--0--0--0--|

The riff names coorespond to the chord names of a twelve bar blues in A.  Since
each riff is two measures long the progression looks like this:

| A riff | A riff | D riff | A riff | E riff | A riff |

The verse tab also follow the chords of a twelve bar blues like this.

A verse riff
|-----------------|            |------------------|
|-----------------|            |------------------|
|-----2-----------| play 3     |-----2-----2------|
|-----2-----------| times      |-----2-----2------|
|-----0-----------| <----      |-----0-----0------|
|--3--------------|            |--3-----3-----3^0-|

D verse riff
|-----------------|            |------------------|
|-----3-----------| play 3     |-----3-----3------|
|-----2-----------| times      |-----2-----2------|
|-----0-----------| <----      |-----0-----0------|
|--3--------------|            |--3-----3-----3^0-|
|-----------------|            |------------------|

E verse riff
|--------------------------|--------------------------|------------|
|--------------------------|--------------------------|------------|
|--------------------------|--------------------------|------------|
|--9--9--11-9--9--9--11-9--|--9--9--11-9--9--9--11-9--|--7---------|
|--7--7--7--7--7--7--7--7--|--7--7--7--7--7--7--7--7--|--5---------|
|--------------------------|--------------------------|------------|

The end is as follows:

  free time
  A7
|--------------------------------------------------------------------------|
|--5-----------------------------------------------------------------------|
|--x-----------------------------------------------------------------------|
|--5---------------------------5^7^5-7^5----5------------------------------|
|--4--------3^5^3------3-5/7-------------0-----------------------5---------|
|-------5---------3^5------------------------------------------------------|
Komentari
Još nema komentara