Opća Opasnost

Virtualni novi svijet

by: omladinac17

Pronađi akord!

Ne znaš kako odsvirati neki od akorda pjesmi Virtualni novi svijet? Upiši akord u tražilicu i saznaj!

Traženi akord će se prikazati ovdje

Od istog izvođača

Pregledano 8166 puta
Pregledano 2597 puta
Pregledano 6267 puta
Pregledano 9526 puta
Pregledano 6129 puta
Trebaš ritam za ovu pjesmu? Pronađi ga ovdje
Akordi/Tabovi:
uvod:

3X

D |-----8-----8-----8-----8-----9-7-8--
A |-----6-6-6-6-6-6-6-6-6-6-6-6-6-6-6--
E |------------------------------------

D |-----8-----8-----8-----8-----8-9-7-8--
A |-----6-6-6-6-6-6-6-6-6-6-6-6-6-6-6-6--
E |--------------------------------------

D |-----8-----8-----8-----8-----9-7---
A |-----6-6-6-6-6-6-6-6-6-6-6-6-6-6---
E |-----------------------------------

D |----------------------------------8-|
A |-----9-----9-----9-----9-----9-11-6-|
E |-----7-7-7-7-7-7-7-7-7-7-7-7-7-9----|

nakon trečeg:

D |--------------------------------8---|
A |----11-9---8---6---4---3--------6---|
E |----9--7---6---4---2---1------------|



Dis  Cis    Dis

      Virtualni novi svijet,

Cis              Dis
virtualni ptica let,

Cis            Gis
virtualna moja prva ljubavi,

Fis           Gis
virtualni ja i ti.

ref:

        Dis   F    Fis       
U mreži informacija,

      Dis   Gis  Dis
sve je simulacija,

      Dis   F    Fis
nova generacija,

      Dis   Gis  Dis     Dis
perfektnija imitacija, života.




Dis  Cis    Dis
Isprogramirani dan,

Cis              Dis
klonirani divan san,

Cis                  Gis
laku noć ti želim sa dva iskrena,

Fis        Gis
virtualna poljupca.

ref:

        Dis   F    Fis   
U mreži innformacija,

      Dis   Gis  Dis
sve je simulacija,
     Dis   F    Fis
nova generacija,
       Dis   Gis  Dis
perfektnija imitacija, života.


solo

Cis                  Gis
laku noć ti želim sa dva iskrena,

Fis        Gis
virtualna poljupca.


ref:

        Dis   F    Fis
U mreži informacija,
      Dis   Gis  Dis
sve je simulacija,
    Dis   F    Fis
nova generacija,
        Dis   Gis  Dis     Dis
perfektnija imitacija, života.
Komentari

poprock95 kaže:

Nek neko, ko zna, opiči solo, bilo bi super:)

17-02-2014 03:10