Laufer

Između neba i mora

by: brian_s

Pronađi akord!

Ne znaš kako odsvirati neki od akorda pjesmi Između neba i mora? Upiši akord u tražilicu i saznaj!

Traženi akord će se prikazati ovdje

Od istog izvođača

Pregledano 2009 puta
Pregledano 6962 puta
Pregledano 3590 puta
Pregledano 2753 puta
Pregledano 11796 puta
Trebaš ritam za ovu pjesmu? Pronađi ga ovdje
Akordi/Tabovi:
-------------------------------------------------------------------------------
                          Izmedju neba i mora - Laufer
-------------------------------------------------------------------------------

Tabbed by: brian_s
Email: bsremec@gmail.com


INTRO:
e----------------------------------------------------------------------|
B----------------------------------------------------------------------|
G---7/9--9-9-----7/9--9-9-9-9-12---------------------------------------|
D---7/9--9-9-----7/9--9-9-9-9-12----7-7---5-5-5------------------------|
A---7/7--7-7-----7/7--7-7-7-7-10----7-7---5-5-5------------------------|
E-----------------------------------5-5---3-3-3------------------------|

VERSE STUFF:
e--------------------------------------------------------------------|
B--------------------------------------------------------------------|
G---7-7-7/9----------------------------------------------------------|
D---7-7-7/9-----------------5----------------------------------------|
A---5-5-5/7-----------------5----------------------------------------|
E---------------------------3----------------------------------------|

PRE CHORUS:
e-------------2------------------------------------------------------|
B-------------3------------------------------------------------------|
G---4--4-4----2------------------------------------------------------|
D---4--4-4----0----7-7----5-5-5--------------------------------------|
A---2--2-2---------7-7----5-5-5--------------------------------------|
E------------------5-5----3-3-3--------------------------------------|


CHORUS:
e--------------------------------------------------------------------|
B--------------------------------------------------------------------|
G------------------4--------------5-------------7--------------------|
D--------2--------------------5-------------7------------------------|
A----0---------2----------3-------------5----------------------------|
E--------------------------------------------------------------------|

BRIDGE:
e--------------------------------------------------------------------|
B--------------------------------------------------------------------|
G------------------------------------------------------7-7-7-7-------| 5x
D---5/7--7-7------5/7--7-7-7-7------5/7--7-7------5/7--7-7-7-7-------|
A---5/7--7-7------5/7--7-7-7-7------5/7—-7-7------5/7--5-5-5-5-------|
E---3/5—-5-5------3/5—-5-5-5-5------3/5—-5-5------3/5----------------|

e----------------------------------------------------------------------|
B----------------------------------------------------------------------|
G-----------------------------5--5-5-----7--7-7-7----------------------| 4x
D-----7--7-7-----7--7-7-7-----5--5-5-----7--7-7-7----------------------|
A-----7--7-7-----7--7-7-7-----3--3-3-----5--5-5-5----------------------|
E-----5--5-5-----5--5-5-5----------------------------------------------|

e--------------------------------------------------------------------|
B--------------------------------------------------------------------|
G------------------------------------------------------7-7-7-7-------| 3x
D---5/7--7-7------5/7--7-7-7-7------5/7--7-7------5/7--7-7-7-7-------|
A---5/7--7-7------5/7--7-7-7-7------5/7—-7-7------5/7--5-5-5-5-------|
E---3/5—-5-5------3/5—-5-5-5-5------3/5—-5-5------3/5----------------|

e--------------------------------------------------------------------|
B--------------------------------------------------------------------|
G--------------------------------------------------------------------|
D---7-7-7-7-7-7-7-7-7-7-7-7------------------------------------------|
A---7-7-7-7-7-7-7-7-7-7-7-7------------------------------------------| PM
E---5-5-5-5-5-5-5-5-5-5-5-5------------------------------------------|

SONG ORDER:

Intro 3x
Verse
Pre chorus 2x
Chorus 4x
Intro 1x
Verse
Pre chorus 2x
Chorus 8x
Bridge
Chorus 11x
Komentari
Još nema komentara