Laufer

Govorim u snu (akustična verzija)

by: brian_s

Pronađi akord!

Ne znaš kako odsvirati neki od akorda pjesmi Govorim u snu (akustična verzija)? Upiši akord u tražilicu i saznaj!

Traženi akord će se prikazati ovdje

Od istog izvođača

Pregledano 2759 puta
Pregledano 11801 puta
Pregledano 3363 puta
Pregledano 6964 puta
Pregledano 11067 puta
Trebaš ritam za ovu pjesmu? Pronađi ga ovdje
Akordi/Tabovi:
-------------------------------------------------------------------------------
                   Govorim u snu (akusticna verzija) - Laufer
-------------------------------------------------------------------------------

Tabbed by: brian_s
Email: bsremec@gmail.com


Verse:                               
e--0--0-0--0--0---------3--3-3--3--3-----------|
B--0--0-0--0--0---------3--3-3--3--3-----------|       Povremeno svira 
G--0--0-0--0--0---------0--0-0--0--0-----------|  4x   bez filova.
D--2--2-2--2--2-----0---0--0-0--0--0-0h2p0-----|       
A--2--2-2--2--2-0h2-----2--2-2--2--2-------2---|
E--0--0-0--0--0---------3--3-3--3--3-----------|
                      U gradu smijesnoga lica...
     
Pre chorus:
e---------------3-3-3-3--3-3-3-2-0-2--0-0-0-0---|
B--3--3-3-3-3---3-3-3-3--3-3-3-3-3-3--3-3-3-3---|
G--0--0-0-0-0---0-0-0-0--0-0-2-2-2-2--2-2-2-2---|
D--2--2-2-2-2---2-2-2-2--2-2-0-0-0-0--0-0-0-0---|
A--0--0-0-0-0---0-0-0-0--0-0--------------------|
E-----------------------------------------------|
A vjetar nosi  na lakim     usnama

e---------------3-3-3-3--3-3-3-2-0-2---|
B--3--3-3-3-3---3-3-3-3--3-3-3-3-3-3---|
G--0--0-0-0-0---0-0-0-0--0-0-2-2-2-2---|
D--2--2-2-2-2---2-2-2-2--2-2-0-0-0-0---|
A--0--0-0-0-0---0-0-0-0--0-0-----------|
E--------------------------------------|
Miris   prve   jeseni


Ostatak pjemse:

Verse

Pre chorus

Chorus:
C add9         G6   
Oooooooooooooo govorim u snu
Oooooooooooooo govorim u snu

Verse

Pre chorus

Chorus 2x

Pre chorus (bez pjevanja, druga gitaa dodaje waka waka z wahom)


Solo:
W/Wah wah
e----------------12----12p10------10p7-----------------------------------|
B---12~~~~8--------------------------------10p8--------------------10b---|
G-----------------------------------------------9-9~~~~------7-----------|
D--------------------------------------------------------7h9-------------|
A------------------------------------------------------------------------|
E------------------------------------------------------------------------|

Za ritam svirajte kiticu.


p   =   pull off
h   =   hammer on
~   =   vibrato
Komentari
Još nema komentara