Laufer

Dio tebe

by: brian_s

Pronađi akord!

Ne znaš kako odsvirati neki od akorda pjesmi Dio tebe? Upiši akord u tražilicu i saznaj!

Traženi akord će se prikazati ovdje

Od istog izvođača

Pregledano 19594 puta
Pregledano 3526 puta
Pregledano 1518 puta
Pregledano 2010 puta
Pregledano 11062 puta
Trebaš ritam za ovu pjesmu? Pronađi ga ovdje
Akordi/Tabovi:
Tabbed by: brian_s
Email: bsremec@gmail.com


INTRO:
e---------------------------------------------0-----0--------|
B-----------------------------------------------0-----0------|
G--------4-4/6---6-4---------------4-4--2-2-------2-----2----|
D---2-2--4-4/6---6-4—-6/7/6---2-2--4-4--2-2------------------|
A---2-2--2-2/4---4-2—-6/7/6---2-2--2-2--0-0------------------|
E---0-0---------------4/5/4---0-0----------------------------|


VERSE 1:
E                 A
Srce puno rijeci, suze govore
Nestali snovi ljube kao koprive
Koliko na svijetu ima malo mostova
Sami kao otoci sto more razdvaja


PRE CHORUS:
      C#5          B5          G#5
Kazes, uvijek ovdje blizu mene
           A5
Postoji jos dio tebe.


VERSE 2:

Kilometri pricaju najtuznije price
Greske kao pijesak vjetar nosi u lice
Tisina postaje moj jedini zvuk
Kao prazna boca ostavljen na dnu


PRE CHORUS:
Kazes, uvijek ovdje blizu mene
Postoji jos dio tebe.


CHORUS:
E       G           A
Cijeli svijet stane na moj dlan       play chorus 2x
        C
Tonem dublje za jos jedan dan
                D
Dublje za jos jedan dan.


PLAY INTRO 2X


VERSE 3:
Na zlatnom tepihu prosutih zvijezda
Zelje nam postaju glasnije od smijeha
Koliko na svijetu ima malo mostova
Sami kao otoci sto more razdvaja

PRE CHORUS:
Kazes, uvijek ovdje blizu mene
Postoji jos dio tebe.


CHORUS:
E       G           A
Cijeli svijet stane na moj dlan       play chorus 2x
        C
Tonem dublje za jos jedan dan
                D
Dublje za jos jedan dan

E     G      A        C
Yeah, yeah, yeeeaeeaaaaaah


SOLO:

03:51
  C       C       C       C       C        D       D       E      E
e---------------------------------------------------------------------|
B---5/10---------8---------5/8------------8/10------------3/5---------|
G---------------------------------------------------------------------|
D---------------------------------------------------------------------|
A---------------------------------------------------------------------|
E---------------------------------------------------------------------|

   E       E       G       G       G       G      A      A      A
e---------------------------------------------------------------------|
B---3/5-----------3p0h3-----------3/5------------5/8------------------|
G---------------------------------------------------------------------|
D---------------------------------------------------------------------|
A---------------------------------------------------------------------|
E---------------------------------------------------------------------|

    A       A       C      C      C      C      C       C
e---------------------------------------------------------------------|
B-----8/10----------8------------8/10/8----------5--------------------|
G---------------------------------------------------------------------|
D---------------------------------------------------------------------|
A---------------------------------------------------------------------|
E---------------------------------------------------------------------|

04:16
    E               A               E             A
e---------------------------------------------------------------------|
B----5/12----------12/9------------9/7-----------7/9/5----------------|
G---------------------------------------------------------------------|
D---------------------------------------------------------------------|
A---------------------------------------------------------------------|
E---------------------------------------------------------------------|
Komentari
Još nema komentara