Laufer

Balerina

by: brian_s

Pronađi akord!

Ne znaš kako odsvirati neki od akorda pjesmi Balerina? Upiši akord u tražilicu i saznaj!

Traženi akord će se prikazati ovdje

Od istog izvođača

Pregledano 11796 puta
Pregledano 6962 puta
Pregledano 3591 puta
Pregledano 11062 puta
Pregledano 2010 puta
Trebaš ritam za ovu pjesmu? Pronađi ga ovdje
Akordi/Tabovi:
-------------------------------------------------------------------------------
                              Balerina - Laufer
-------------------------------------------------------------------------------

Tabbed by: brian_s
Email: bsremec@gmail.com


INTRO:
e----------------------------|
B----------------------------|
G----------------------------|  2x
D-------0----------------4---|
A---0h4---4---5p4-4-4--4p2---|
E----------------------------|

1st VERSE:
e----------------------------|
B----------------------------|
G----------------------------|  4x
D-------0----------------4---|
A---0h4---4---5p4-4-4--4p2---|
E----------------------------|

e----------------------------------------|
B----------------------------------------|
G----------------------------------------|  4x
D----------------------------------------|
A---2h4-4-4----5p4-4-4----5p4-4-4----2---|
E----------------------------------------|

e--------------------------------|
B--------------------------------|
G--------------------------------|  2x
D-------------------------11p9---|
A---2/6-6-6----7p6-6-6-----------|
E--------------------------------|

e----------------------------|
B----------------------------|
G----------------------------|  2x
D-------0----------------4---|
A---0h4---4---5p4-4-4--4p2---|
E----------------------------|

CHORUS:
e-----------------------------------|
B----------------------3\2----------|
G----------------------2-2------5---|  2x
D---4----------2-------2-2------5---|
A---4----------2-------0-0------3---|
E---2----------0--------------------|
  Nikad nece saznati,   o cemu prica

e----------------------------|
B----------------------------|
G----------------------------| 2x
D-------0----------------4---|
A---0h4---4---5p4-4-4--4p2---|
E----------------------------|

2nd VERSE:
e--------------------------------|
B--------------------------------|
G--------------------------------|  4x
D-------------------------11p9---|
A---2/6-6-6----7p6-6-6-----------|
E--------------------------------|

e-------------------------------------|
B--------------------------3\2--------|
G--------------------------2-2----5---|  2x
D---4------------2---------2-2----5---|
A---4------------2---------0-0----3---|
E---2------------0--------------------|
  Usi prema     mojim   ustima

CHORUS:
e-----------------------------------|
B----------------------3\2----------|
G----------------------2-2------5---|  3x
D---4----------2-------2-2------5---|
A---4----------2-------0-0------3---|
E---2----------0--------------------|
  Nikad nece saznati,   o cemu prica

SOLO:
e-------------------------------|
B-------------------------------|
G-------------------------------|
D----------4--------------------|
A---2---------2-------------0---|
E--------------------3----------|

e----------- play 2x ----------|---------------|
B------------------------------|---------------|
G------------------------------|---------------|
D---------4----2--4p2--0h2p0---|---5-------7---|
A---0h2-2----------------------|---5-------7---|
E------------------------------|---3-------5---|

w/delay
e---------------------------------- I have the delay set like this ---|
B---------------------------------------------------------------------|
G---/11v----11\9----/11v-11v---------------- Level: 6.5   ------------|  4x
D------------------------------------------- Repeats: 3.5 ------------|
A------------------------------------------- Time: 3.5    ------------|
E---------------------------------------------------------------------|

e------------------------------------------|
B------------------------------------------|
G---8-8-8\7----8-8-8\7----5-5-5\3----3-3---|  4x
D------------------------------------------|
A------------------------------------------|
E------------------------------------------|

e---10----10-----------------|
B------10----10v------12v/---|
G----------------------------|  4x
D----------------------------|
A----------------------------|
E----------------------------|

e----------------------------|
B----------------------------|
G----------------------------| 2x
D-------0----------------4---|
A---0h4---4---5p4-4-4--4p2---|
E----------------------------|

3rd VERSE:
e----------------------------------------|
B----------------------------------------|
G----------------------------------------| 8x
D----------------------------------------|
A---2h4-4-4----5p4-4-4----5p4-4-4----2---|
E----------------------------------------|

CHORUS:
e-----------------------------------|
B----------------------3\2----------|
G----------------------2-2------5---|  3x
D---4----------2-------2-2------5---|
A---4----------2-------0-0------3---|
E---2----------0--------------------|
  Nikad nece saznati,   o cemu prica


End with: C5





v   =   vibrato
/   =   slide down
\   =   slide up
p   =   pull off
h   =   hammer on
Komentari
Još nema komentara