Željko Bebek

Oprosti mi sto te volim ( intro )

by:

Pronađi akord!

Ne znaš kako odsvirati neki od akorda pjesmi Oprosti mi sto te volim ( intro )? Upiši akord u tražilicu i saznaj!

Traženi akord će se prikazati ovdje

Od istog izvođača

Pregledano 15089 puta
Pregledano 3953 puta
Pregledano 25855 puta
Pregledano 76985 puta
Pregledano 3573 puta
Trebaš ritam za ovu pjesmu? Pronađi ga ovdje
Akordi/Tabovi:
e----------------------------------------
B---5--6/9--9--9--10--9--7--5--4--4------
G----------------------------------------
D----------------------------------------
A----------------------------------------
E----------------------------------------



e----------------------------------------
B----5/9--9--9--10--9--7--5--4--0-------- ( 10,9,7,5,4,zice malo brze odsvirati nego prvi put )
G----------------------------------------
D----------------------------------------
A----------------------------------------
E----------------------------------------




e----------------------------------------
B-1--2/9--9--9--10--9--7--5--4-----------
G-------------------------------5--------
D----------------------------------------
A----------------------------------------
E----------------------------------------


e-----------------12--13--12--10---------
B--10--5--13--10-------------------------
G----------------------------------------
D----------------------------------------
A----------------------------------------
E----------------------------------------
Komentari

Damiiir kaže:

e----------------------------------------
B--2--3/9--9--9--10--9--7--5--4----------
G-------------------------------5--------
D----------------------------------------
A----------------------------------------
E----------------------------------------


mali ispravak , umjsto prvog pola odsvirate 2 i sa 3 polja vrsite slajd do 10 zice. ( ovo je vezano za 3 tab )

01-04-2011 13:27

Damiiir kaže:

pardon jos jedna greska vezana za komentar ne vrsite slajd do 10 nego do 9 zice , ( kad cu napisati pravilno ) :D

02-04-2011 18:40