ZADNJE NA FORUMU
  • Yamaha Pacifica

    Komentirao: Ad_slammer

    Datum: 26-10 10:20

    Odgovora: 78

    Pogleda: 9314

  • PorcupineONE - SNIMKE

    Komentirao: porcupine1

    Datum: 26-10 01:32

    Odgovora: 101

    Pogleda: 10279

  • Slika dana

    Komentirao: Glam Boogie

    Datum: 25-10 22:05

    Odgovora: 148

    Pogleda: 7987

  • Pozdrav!

    Komentirao: pekki

    Datum: 25-10 17:36

    Odgovora: 1

    Pogleda: 34

  • Što ste slušali danas

    Komentirao: Glam Boogie

    Datum: 25-10 12:38

    Odgovora: 470

    Pogleda: 27319

  • soldano slo-100 + distorzije

    Komentirao: Ad_slammer

    Datum: 22-10 11:02

    Odgovora: 1

    Pogleda: 127

  • Tražim bassistu za jazz projekt (Zadar)

    Komentirao: Chet

    Datum: 22-10 00:33

    Odgovora: 0

    Pogleda: 73

  • Tražim bassistu za jazz projekt (Zadar)

    Komentirao: Chet

    Datum: 22-10 00:33

    Odgovora: 0

    Pogleda: 40

  • Torpedo18

    Komentirao: akicr7

    Datum: 21-10 15:12

    Odgovora: 0

    Pogleda: 99

  • Kakvo pojačalo imate?

    Komentirao: Sava

    Datum: 21-10 08:57

    Odgovora: 3009

    Pogleda: 717712

  • Koje gitare imate?

    Komentirao: Jibboom

    Datum: 19-10 18:43

    Odgovora: 374

    Pogleda: 31659

  • Sto te nema - verzija iz filma Toma

    Komentirao: nercibald

    Datum: 14-10 08:33

    Odgovora: 0

    Pogleda: 115

  • Gitara & planinarenje

    Komentirao: Strat04

    Datum: 08-10 20:23

    Odgovora: 2

    Pogleda: 235

  • Divlje Jagode - Jedina moja - Cover

    Komentirao: nijebitno

    Datum: 08-10 12:37

    Odgovora: 8

    Pogleda: 716

  • Pusti me - Haris Dzinovic

    Komentirao: nercibald

    Datum: 06-10 18:18

    Odgovora: 0

    Pogleda: 107

  • Bobi Popovski....

    Komentirao: nercibald

    Datum: 03-10 20:19

    Odgovora: 1

    Pogleda: 120

  • NAJNOVIJI video je dostupan...

    Komentirao: etkfrru

    Datum: 03-10 13:41

    Odgovora: 3

    Pogleda: 178

  • Imati pa nemati - Dzej

    Komentirao: nercibald

    Datum: 03-10 08:30

    Odgovora: 0

    Pogleda: 129

  • ambijentalna gitara

    Komentirao: pekki

    Datum: 02-10 16:51

    Odgovora: 0

    Pogleda: 248

  • Alternate picking

    • Datum:   19-03-2011 21:45
    • Autor:   *SpeedMaster*
    • Ispiši   Stranicu
    Pitate se kako svirati poput Malmsteena, Gilberta, Hammeta, Musitaina i ostalih gitarista?

    Pitate se kako svirati tako brzo i precizno?

    Jedna od tehnika brzog sviranja je alternate picking, tzv. naizmjenicno trzanje. U ovom tutorijalu dat ću vam par savjeta i lickova i otkrit cu vam tajnu naizmjenicnog trzanja.

    Za pocetak opustite lijevu i desnu ruku. Desna ruka vam nesmije biti napeta prilikom sviranja.

    Obavezno koristite metronom! On ce vam pomoci da usavršite ritam. Sa svakom vjezbom pocnite polako i nedizite tempo dok niste savladali vjezbu u tempu u kojem svirate.

    Pazite na sinkonizaciju lijeve i desne ruke! Svaki trzaj desne ruke mora se poklopiti sa promjenom tona lijeve ruke. Samo tako ce svaki ton zvucati cisto i precizno odsvirano.

    Pazite da se ne cuju prazne zice koje ne svirate! Zice koje su dublje od one na kojoj trenutno svirate, prigusite dlanom desne ruke. Zice koje su vise od one na kojoj trenutno svirate, lagano dotaknite preostalin dijelom kaziprsta lijeve ruke, kako se nebi culi neki nezeljeni tonovi.

    Ne izbjegavajte sviranje sa malim prstom! Vrlo cesto mozete vidjeti gitariste koji izbjegavaju koristenje malog prsta lijeve ruke u sviranju jer im mali prst nema dovoljno snage da izvede ono sto bi trebao.

    Evo par lickova za vjezbu:

    Akordi/Tabovi:
    Lick 1:

    |-4-3-2-1-5-4-3-2-6-5-4-3-5-4-3-2-|-6-5-4-3-7-6-5-4-8-7-6-5-7-6-5-4-|-8-7-6
    |---------------------------------|---------------------------------|------
    |---------------------------------|---------------------------------|------
    |---------------------------------|---------------------------------|------
    |---------------------------------|---------------------------------|------
    |---------------------------------|---------------------------------|------

    -5-9-8-7-6-10-9-8-7-9-8-7-6-|-10-9-8-7-11-10-9-8-12-11-10-9-11-10-9-8-||
    ----------------------------|-----------------------------------------||
    ----------------------------|-----------------------------------------||
    ----------------------------|-----------------------------------------||
    ----------------------------|-----------------------------------------||
    ----------------------------|-----------------------------------------||


    Sve je u ovom licku odsvirano alternate pickingom. Prvi ton je downstroke, drugi upstroke i tako dalje. Pocnite svirati ovu vježbu polako, a tek kad ju budete mogli odsvirati predjite na brzi tempo. (ovaj tekst odnosi se na sve lickove)

    Akordi/Tabovi:
    Lick 2:

    |----------------------------|| |-------------------------||
    |---------------8------------|| |-------5--6--8--6--5-----||
    |-----7--9--10-----10--9--7--|| |-5--7-----------------7--||
    |-10-------------------------|| |-------------------------||
    |----------------------------|| |-------------------------||
    |----------------------------|| |-------------------------||


    |-------------------------||
    |----------6--8--6--------||
    |-5--7--9-----------9--7--||
    |-------------------------||
    |-------------------------||
    |-------------------------||



    Akordi/Tabovi:
    Lick 3:

    |-------------------------------------------------||
    |-------------------------------------------------||
    |-7--5--------7--5--------7--5--------7--5--------||
    |-------7--5--------7--5--------7--5--------7--5--||
    |-------------------------------------------------||
    |-------------------------------------------------||

    |-------------------------------------------------||
    |-------------------------------------------------||
    |----------5--7--5-----------------5--7--5--------||
    |----5--7-----------7--5-----5--7-----------7--5--||
    |-7-----------------------7-----------------------||
    |-------------------------------------------------||

    |------------------------------------------------------||
    |--------------10-------------------------8------------||
    |--------7--8------8--7-------------7--8-----8--7------||
    |-7--10------------------10--7--10-----------------10--||
    |------------------------------------------------------||
    |------------------------------------------------------||


    Lick 4:


    |-------------------------------------|------------------------------------
    |-------------------------------------|-------------------------5--8--5----
    |-------------------------------------|-------5--7--5-----5--7-----------7-
    |-------------------------5--7--5-----|-5--7-----------7-------------------
    |-------5--7--5-----5--7-----------7--|-----------------------------------
    |-5--8-----------8--------------------|------------------------------------

    |-------5--8--5-----------5----------|------------------------------------|
    |-5--8-----------8--5--8-----8--5----|-------5----------------------------|
    |----------------------------------7-|-5--7-----7--5-----------5----------|
    |------------------------------------|----------------7--5--7-----7--5----|
    |------------------------------------|----------------------------------7-|
    |------------------------------------|------------------------------------|

    -------------------||
    -------------------||
    -------------------||
    -------5-----------||
    -5--7-----7--5-----||
    ----------------8--||

    Lick 5:

    |------------------------------------------------|-------------------------
    |------------------------------------------------|-------------5-----------
    |-------------------------------------5----------|-------5--7-----7--5-----
    |-------------5-----------------5--7-----7--5----|-5--7-----------------7--
    |-------5--7-----7--5-----5--7-----------------7-|-------------------------
    |-5--8-----------------8-------------------------|-------------------------

    -------------5----------|-------5--8--5----------------------------------|
    -------5--8-----8--5----|-5--8-----------8--5-----------5--8--5----------|
    -5--7-----------------7-|----------------------7--5--7-----------7--5----|
    ------------------------|----------------------------------------------7-|
    ------------------------|------------------------------------------------|
    ------------------------|------------------------------------------------|

    |------------------------------------------------||
    |------------------------------------------------||
    |-------5--7--5----------------------------------||
    |-5--7-----------7--5-----------5--7--5----------||
    |----------------------7--5--7-----------7--5----||
    |----------------------------------------------8-||

    Slični tekstovi

    Pregledano 3374 puta
    Pregledano 3310 puta
    Pregledano 7195 puta
    Pregledano 3664 puta
    Pregledano 5523 puta

    » 0 komentara... Dodaj svoj!

    Još nema komentara