Vines

Outtathaway Bass Tab

by: UG

Pronađi akord!

Ne znaš kako odsvirati neki od akorda pjesmi Outtathaway Bass Tab? Upiši akord u tražilicu i saznaj!

Traženi akord će se prikazati ovdje

Od istog izvođača

Pregledano 769 puta
Pregledano 857 puta
Pregledano 823 puta
Pregledano 669 puta
Pregledano 925 puta
Trebaš ritam za ovu pjesmu? Pronađi ga ovdje
Akordi/Tabovi:
Tabbed By : Me obv
e-mail: m_carey91@hotmail.com

Tuning:EADG


(intro)at the end of the second bar of guitar
G|---------------------------------------------------------------|
D|---------------------------------------------------------------|
A|---------------------------------------------------------------|
E|--8-8-10-11-10-8-10--------------------------------------------|

Verse (part one)
G|---------------------------------------------------------------|
D|---------------------------------------------------------------|
A|---------------------------------------------------------------|
E|--5-5-0-3-3-3-4-5-5/8-8-8-8------------------------------------|

Verse (part two)

G|---------------------------------------------------------------|
D|---------------------------------------------------------------|
A|---------------------------------------------------------------|
E|--3-3-0-1-1-1-2-3-3/6-6-6-6------------------------------------|

Chorus
G|-----------------------------------------------------------------|
D|-----------------------------------------------------------------|
A|-----------------------------------------------------------------|
E|--5-5-5-5-5-5-5-5-8-8-8-3-3-3-4-7-7-7-7-7-7-7-7-10-10-10-8-3-3-4-|

End
G|---------------------------------------------------------------|
D|---------------------------------------------------------------|
A|---------------------------------------------------------------|
E|--5-5-0-3-3-3-3-4-5--------------------------------------------|
Order:

Intro (x1)
verse part 1 (x4)
verse part 2 (x1)
verse part 1(x1)
Intro (x1)
Chorus(x1)
verse part 1 (x2)
Verse part 2 (x1)
verse part 1 (x3)
verse part 2 (x1)
intro (x1)
Chorus (till end)
End

just listen to for timing, i'm almost certain this is ryt
Komentari
Još nema komentara